» » »

Neocolours - Maybe Tabs

Artists:  A B C D E F G H I J K L M N O P Q R S T U V W X Y Z # 

Maybe Tabs

(ver. 1) Click to play this song!
Neocolours
 Rating:
2.1/5 (29 votes)

 Maybe lessons Tabs too difficult? Try these video lessons and learn fast
 
                Intro
C-D-G-C-Am-D-F...


E|---------------------------------------------------------|
B|-----5--7--7/8--7--8--7--5-------------------------------|
G|--7-------------------------7--7-------------------7-----|
D|----------------------------------5--7--7/9--7--9-----5--|
A|---------------------------------------------------------|
E|---------------------------------------------------------|


E|-----------------------------------------1--|
B|-----------1--0--------------------------1--|
G|--------2--------2--2--0-----0--------2--2--|
D|-----2-----------0--------4--------3-----3--|
A|--0-----------------------------3--------3--|
E|-----------------------------1-----------1--|

Verse I:

E|-------------------3-----------0-----------2--|
B|----------0-----------1--0--1-----3-----------|
G|----0--2--------------------------------4-----|
D|----------------0--------------------4--------|
A|-------------2--------0-----------2-----------|
E|----------3-----------------------------------|
         G  Am              Bm
There I was waiting for a chance


E|-----------0--2--3--------|
B|--1--0--1-----------3--0--|
G|--------------------------|
D|--------------------------|
A|--0-----------------------|
E|--------------0-----------|
Am                 Em
Hopin' that you'll understand


E|--------------------2--------3--------2--|
B|--------------0--------3--------3--------|
G|--0-----0--2-----2--------2--------2-----|
D|-----2-----------0-----------------------|
A|--3--------------------------------------|
E|-----------------------------------------|
      C        D
The things I wanna say


Verse II:(Follow same TABs as I)

             G         Am             Bm
(As/But) my love went stronger than before
   Am                Em
I wanna see you, you more and more
     C          D
But you closed your door


Pre-Chorus:

E|-----------------------------------------------3--|
B|-----1--0--------------1--1--0--1--3--0-----------|
G|--0--2-----2--0-----0-----2-----------------------|
D|-----3-----------2--------------------------0-----|
A|--------------3-----------0--------------2--------|
E|--------------------------------2-----3-----------|
 F             C      Am  D/F#     G
Why don't you try to open up your heart


E|-----------------------------2--------2--|
B|--1--1--0--------------3--------3-----3--|
G|--2--------0--------0-----2--------2--2--|
D|--3--------------2--------0-----------0--|
A|--------------2--------------------------|
E|-----------0-----------------------------|
F             Em              D
I won't take so much of your time


Chorus:

E|-------2--3--2--3--2--0--------|
B|----3-----3--------------3--3--|
G|-------------------------------|
D|----------------------0--------|
A|----------3--------------------|
E|-------------------------------|
              C                   D
May be it's wrong to say "Please love me, too"


E|--------------------------|
B|--------0-----0--3--------|
G|--0--2-----2--------0-----|
D|-----------------------2--|
A|--------------------3-----|
E|--------3-----------------|
        G                C
'Coz I know you'll never do


E|-----0--2--3--2--3--2--0-------0--2--------2--0-----|
B|--3-------------------------------------3--------3--|
G|--------------------------2--2-------2--------------|
D|----------------------------------0-----------------|
A|-----------------------0----------------------------|
E|-----------0----------------------------------------|
          Em              Am               D
Somebody else is waitin' there inside for you

E|-------2--3--2--3--2--0--------|
B|----3-----3--------------3--3--|
G|-------------------------------|
D|----------------------0--------|
A|----------3--------------------|
E|-------------------------------|
             C                D
Maybe it's wrong to love you more each day


E|-----------------------------0--|
B|--------0-----0--------------0--|
G|--0--2-----2-----2--0--------0--|
D|--------------------------2-----|
A|-----------------------2--------|
E|--------3-----------0-----------|
        G                 Em
'Coz I know he's here to stay


E|--------------------------------------------1--|
B|-----------1--0--------------------------1--1--|
G|--------2--------2--2--0-----0--------2-----2--|
D|-----2-----------0--------4--------3-----------|
A|--0-----------------------------3--------------|
E|-----------------------------1-----------------|
Am               D                 F
  But I know to whom you should belong

Verse III.  (follow tabs of I)

      G    Am             Bm
I believed what you said to me
Am                   Em
"We should set each other free"
        C               D
That's how you want it to be

Repeat Pre-chorus:


Chorus 2:

E|-------2--3--2--3--2--0--------|
B|----3-----3--------------3--3--|
G|-------------------------------|
D|----------------------0--------|
A|----------3--------------------|
E|-------------------------------|
              C                   D
May be it's wrong to say "Please love me, too"


E|--------------------------|
B|--------0-----0--3--------|
G|--0--2-----2--------0-----|
D|-----------------------2--|
A|--------------------3-----|
E|--------3-----------------|
        G                C
'Coz I know you'll never do


E|-----0--2--3--2--3--7--5--0--0--3--5--5--3--2--|
B|--3-----------------------------------------3--|
G|--------------------------------------------3--|
D|-----------------------------------0--------0--|
A|-----------------------0-----------------------|
E|-----------0-----------------------------------|
          Em              Am               D
Somebody else is waitin' there inside for you


E|-------2--3--2--3--2--0--------|
B|----3-----3--------------3--3--|
G|-------------------------------|
D|----------------------0--------|
A|----------3--------------------|
E|-------------------------------|
             C                D
Maybe it's wrong to love you more each day


E|-----------------------------0--|
B|--------0-----0--------------0--|
G|--0--2-----2-----2--0--------0--|
D|--------------------------2-----|
A|-----------------------2--------|
E|--------3-----------0-----------|
        G                 Em
'Coz I know he's here to stay


E|--------------------------|
B|-----------1--0--0--------|
G|--------2-----------2--2--|
D|-----2-----------0--------|
A|--0-----------------------|
E|--------------------------|
Am        D
  But my love is strong


E|--------------------------|
B|-----------1--0--0--------|
G|--------2-----------2--2--|
D|-----2--------------------|
A|--0-----------------------|
E|-----------------1--------|
Am        F
I don't know if this is wrong


E|--------------------------------------------1--1--0--|
B|-----------1--0--------------------------1-----1--1--|
G|--------2--------2--2--0-----0--------2--------2--0--|
D|-----2-----------0--------4--------3-----------3--2--|
A|--0-----------------------------3--------------3--3--|
E|-----------------------------1-----------------1-----|
Am          D                    F   C
But I know to whom you should belong            
Submit corrections


        Maybe lessons Hard to play? Try these video lessons and learn fast Maybe lessons
        
↑ Back to top | Tablatures and chords for acoustic guitar and electric guitar, ukulele, drums are parodies/interpretations of the original songs. You may use it for private study, scholarship, research or language learning purposes only