» » »

Nelson Willie - On The Road Again Tabs

Artists:  A B C D E F G H I J K L M N O P Q R S T U V W X Y Z # 

On The Road Again Tabs

(ver. 1) Click to play this song!
Nelson Willie
 Rating:
4/5 (4 votes)
                -|------3h4-4----/4-3-4-/5-4-2-0-/4-4-4---------------------------------------
-|----------------------------------------------------------------------------
-|-4-4------------------------------------------------------------------------
-|----------------------------------------------------------------------------
-|----------------------------------------------------------------------------
-|----------------------------------------------------------------------------
                                                                              

-|-/4-3-4-/5-4-2-0-/4-2-2-1-2--2-4-5-555-4-22---------------------------------
-|--------------------------------------------4-5-----------------------------
-|----------------------------------------------------------------------------
-|----------------------------------------------------------------------------
-|----------------------------------------------------------------------------
-|----------------------------------------------------------------------------
   Play Solo Twice
            
Submit corrections

↑ Back to top | Tablatures and chords for acoustic guitar and electric guitar, ukulele, drums are parodies/interpretations of the original songs. You may use it for private study, scholarship, research or language learning purposes only