Home » N » Neil Young »

Neil Young - Out On The Weekend Tabs

Artists:  A B C D E F G H I J K L M N O P Q R S T U V W X Y Z # 

Out On The Weekend Tabs

(ver. 2) Click to play this song!
Neil Young
 Intro
  Q=68
  Bm                          E
 4/4
  Gtr I (Ac. Gtr.)
  Q   S E   S S S E S E   S   Q   S E   S E    E S S S S
|-----0h2-----------2p0-----|-----------0----------------|
|-----3-----3-------3-----0-|-----------0------0-0-0---0-|
|---------4---------4-----0-|-----0h1---1------1-1---0---|
|-4-4-----4---4-4-4-----2---|-2-2-----2-----2----2-------|
|-2-2-----2---2---2-----0---|-2-2-----2----------2-------|
|-----------------2---------|-0-0-----0----------0-------|
  E Q     E   E   E E   E     E Q     E   S E.   E   E


  Bm                         E                           Bm
  E S S E S S S  S E   E E   E S S S S E   S S S S E E   Q  E. S E E E E
|---2p0---2p0------------0-|---------0---------0-------|-2--2--2-2-2-2----|
|---3-----3------3---------|---------0-----------------|-3--3--3-3-3-3----|
|---4---4------------------|---0h1-1-------0-1---------|-4--4--4-4-4-4-x--|
|-4-4---------4------4-4---|-2-----2---2-2---------2-0-|-4--4--4-4-4-4-x--|
|-2------------------------|-2-----2---2-----------2---|-2--2--2-2-2-2----|
|--------------------------|-0-----0---0-----------0---|------------------|
  E E   Q     E.     S Q     Q     E   S S Q       Q


  E                     Bm                          E
  E E E S S S S E E E   E E E S S +S  S E S S S S   E E E S S +S  S E E E
|-0-0-0-0-0---0-0-0---|-2-2-2-2-2-(2)-2-2-2-2-2---|-0-0-0-0-0-(0)-0-0-0-x-|
|-0-0-0-0-0---0-0-0---|-3-3-3-3-3-(3)-3-3-3-3-3---|-0-0-0-0-0-(0)-0-0-0-x-|
|-1-1-1-1-1---1-1-1-x-|-4-4-4-4-4-(4)-4-4-4-4-4-x-|-1-1-1-1-1-(1)-1-1-1-x-|
|-2-2-2-2-2---2-2-2-x-|-4-4-4-4-4-(4)-4-4-4-4-4-x-|-2-2-2-2-2-(2)-2-2-2---|
|-2-2-2-2-2---2-2-2---|-2-2-2-2-2-(2)-2-2-2-2-2---|-2-2-2-2-2-(2)-2-2-2---|
|-0-0-0-0-0---0-0-0---|---------------------------|-0-0-0-0-0-(0)-0-0-0---|


  C#m                    F#7                       Bm
  Q  E E +S  S E S S E   E E E E S S S S S S S S   Q  S S E E E S S S S
|-4--4-4-(4)-4-4-4-4---|-0-0-0-0-0-0-0-0-0-0-0-x-|-2----2-2-2-2-2-2-2----|
|-5--5-5-(5)-5-5-5-5-x-|-2-2-2-2-2-2-2-2-2-2-2-x-|-3----3-3-3-3-3-3-3-x--|
|-6--6-6-(6)-6-6-6-6-x-|-3-3-3-3-3-3-3-3-3-3-3-x-|-4----4-4-4-4-4-4-4-x--|
|-6--6-6-(6)-6-6-6-6-x-|-4-4-4-4-4-4-4-4-4-4-4---|-4----4-4-4-4-4-4-4----|
|-4--4-4-(4)-4-4-4-4---|-4-4-4-4-4-4-4-4-4-4-4---|-2----2-2-2-2-2-2-2----|
|----------------------|-------------------------|-----------------------|


                                1st & 2nd Verses
                              $
  E                              A                     Bm
  E S S S S S S S S E S S S S    E E E E E E S S S S   E E E S S S S E S S S S
|-0-0-0-0-0-0-0-0-0-0-0-0-0-0-||-0-0-0-0-0-0-0-0-0-x-|-2-2-2-2-2-2-2-2-2-2-2---|
|-0-0-0-0-0-0-0-0-0-0-0-0-0-0-||-2-2-2-2-2-2-2-2-2---|-3-3-3-3-3-3-3-3-3-3-3-x-|
|-1-1-1-1-1-1-1-1-1-1-1-1-1-1-||-2-2-2-2-2-2-2-2-2---|-4-4-4-4-4-4-4-4-4-4-4-x-|
|-2-2-2-2-2-2-2-2-2-2-2-2-2-2-||-2-2-2-2-2-2-2-2-2---|-4-4-4-4-4-4-4-4-4-4-4---|
|-2-2-2-2-2-2-2-2-2-2-2-2-2-2-||-0-0-0-0-0-0-0-0-0---|-2-2-2-2-2-2-2-2-2-2-2---|
|-0-0-0-0-0-0-0-0-0-0-0-0-0-0-||---------------------|-------------------------|


  E                    A
  E E Q  E E S S S S   E E E S S S S E S S S S   E E E S S E E S S S S
|-0-0-0--0-0-0-0-0-0-|-0-0-0-0-0-0-0-0-0-0-0-0-|-0-0-0-0-0-0-0-0-0-0-0--|
|-0-0-0--0-0-0-0-0-0-|-2-2-2-2-2-2-2-2-2-2-2-2-|-2-2-2-2-2-2-2-2-2-2-2--|
|-1-1-1--1-1-1-1-1-1-|-2-2-2-2-2-2-2-2-2-2-2-2-|-2-2-2-2-2-2-2-2-2-2-2--|
|-2-2-2--2-2-2-2-2-2-|-2-2-2-2-2-2-2-2-2-2-2-2-|-2-2-2-2-2-2-2-2-2-2-2--|
|-2-2-2--2-2-2-2-2-2-|-0-0-0-0-0-0-0-0-0-0-0-0-|-0-0-0-0-0-0-0-0-0-0-0--|
|-0-0-0--0-0-0-0-0-0-|-------------------------|------------------------|


  Bm                      E                    A
  E E E S S E E S E   S   E E Q  E E S S S S   E E S S S S E E E. S
|-2-2-2-2-2-2-2---0-----|-0-0-0----0-0-0-0-0-|-0-0-0-0-0-0-0-0-0--0--|
|-3-3-3-3-3-3-3---3-----|-0-0-0----0-0-0-0-0-|-2-2-2-2-2-2-2-2-0--0--|
|-4-4-4-4-4-4-4---4---0-|-1-1-1----1-1-1-1-1-|-2-2-2-2-2-2-2-2-2--2--|
|-4-4-4-4-4-4-4---------|-2-2-2----2-2-2-2-2-|-2-2-2-2-2-2-2-2-2--2--|
|-2-2-2-2-2-2-2-----0---|-2-2-2----2-2-2-2-2-|-0-0-0-0-0-0-0-0-0--0--|
|---------------2-------|-0-0-0----0-0-0-0-0-|-----------------------|
  H         Q   E   E


   E     E   E  E E E S S S S
|--0-----0---0--0-0-0-0-0-0-x-|
|--2-----2---2--2-2-2-2-2-2-x-|
|--2-----2---2--2-2-2-2-2-2---|
|--2-----2---2--2-2-2-2-2-2---|
|--0-----0---0--0-0-0-0-0-0---|
|-----------------------------|
|
| Gtr II (Pedal Steel arr. for Gtr.)
|  W
|-----------------------------|
|-10--------------------------|
|-----------------------------|
|--9s11----(11)---------------|
|-----------------------------|
|-----------------------------|
   S  E.    +H.


  Bm                                   E
   E     E   S  S S S   E  E S S S S   E E  E E  E  E  S  S S  S
|--2-----2---2--2-2-2---2--2-2-2-2-x-|-0-0--0-0--0--0--0--0-0--0-|
|--3-----3---3--3-3-3---3--3-3-3-3-x-|-0-0--0-0--0--0--0--0-0--0-|
|--4-----4---4--4-4-4---4--4-4-4-4---|-1-1--1-1--1--1--1--1-1--1-|
|--4-----4---4--4-4-4---4--4-4-4-4---|-2-2--2-2--2--2--2--2-2--2-|
|--2-----2---2--2-2-2---2--2-2-2-2---|-2-2--2-2--2--2--2--2-2--2-|
|------------------------------------|-0-0--0-0--0--0--0--0-0--0-|
|
|  S  E.    +Q         +H              E Q.     +Q    +E    S  S
|------------------------------------|---------------------------|
|-10s12----(12)-------(12)-----------|-7s5------(5)---(5)s==9-10-|
|------------------------------------|---------------------------|
|-11s12----(12)-------(12)-----------|-7s6------(6)---(6)s==9-11-|
|------------------------------------|---------------------------|
|------------------------------------|---------------------------|


  A
    E  E S S S S S S E   S   S S S
|---0--0-0-0-x-0-0-0-0---0---0-0-0-|
|---2--2-2-2-x-2-2-2-2---2---2-2-2-|
|---2--2-2-2-x-2-2-2-2---2---2-2-2-|
|---2--2-2-2-x-2-2-2-2---2---2-2-2-|
|---0--0-0-0-x-0-0-0-0---0---0-0-0-|
|----------------------------------|
|
|  +H.                   Q
|----------------------------------|
|-(10)------------------10---------|
|----------------------------------|
|-(11)-----------------(11)-11s9---|
|----------------------------------|
|----------------------------------|
   +H.                  +S   S E


                             Bm
    E  E E S S E E S S S S    E     E   E  S S E E S S S S
|---0--0-0-0-0-0-0-0-0-0-0-|--2-----2---2--2-2-2-2-2-2-2-x-|
|---2--2-2-2-2-2-2-2-2-2-2-|--3-----3---3--3-3-3-3-3-3-3-x-|
|---2--2-2-2-2-2-2-2-2-2-2-|--4-----4---4--4-4-4-4-4-4-4---|
|---2--2-2-2-2-2-2-2-2-2-2-|--4-----4---4--4-4-4-4-4-4-4---|
|---0--0-0-0-0-0-0-0-0-0-0-|--2-----2---2--2-2-2-2-2-2-2---|
|--------------------------|-------------------------------|
|
|   W                         S  E.    +H.
|--------------------------|-------------------------------|
|-(10)---------------------|-10s12----(12)-----------------|
|--------------------------|-------------------------------|
|---7----------------------|-11s12----(12)-----------------|
|--------------------------|-------------------------------|
|--------------------------|-------------------------------|


                Chorus
  E     Esus4    A                  Bm7/A
  Q  Q  Q  Q     H    Q.      S S    E   E  E S S  S  S E  S  S S S
|-0--0--0--0--||-0----5-------5-5-|-----------7-7-----7-7--7--7-7-7-|
|-0--0--0--0--||-2----5-------5-5-|--7--10-10-7-7-----7-7--7--7-7-7-|
|-1--1--2--2--||-2----6-------6-6-|--7---7--7-7-7-----7-7--7--7-7-7-|
|-2--2--2--2--||-2----7-------7-7-|--7---7--7-7-7-----7-7--7--7-7-7-|
|-2--2--2--2--||-0----0-------0-0-|--0---0--0-0-0-----0-0--0--0-0-0-|
|-0--0--0--0--||------------------|---------------------------------|
|
| Q  Q  Q  Q     W                  +H            +Q      +S  S S S
|-------------||-5----------------|---------------------------------|
|-5--5--5--5--||------------------|---------------------------------|
|-------------||-6----------------|---------------------------------|
|-6--6--7--7--||------7---(7)---7-|-(7)-----------(7)-----(7)-7-7-7-|
|-------------||------------------|---------------------------------|
|-------------||------------------|---------------------------------|
                 H    Q   +E.   S


  Bm9/A       AmajA
  E E E S S E E E E   +S  S E E S S +S  S E S S S S
|-9-9-9-9-9-9-9-9-5-|-(5)-5-5-5-5-5-(5)-5-5-5-5-5-5-|
|-7-7-7-7-7-7-9-9-5-|-(5)-5-5-5-5-5-(5)-5-5-5-5-5-5-|
|-7-7-7-7-7-7-9-9-6-|-(6)-6-6-6-6-6-(6)-6-6-6-6-6-6-|
|-7-7-7-7-7-7-9-9-7-|-(7)-7-7-7-7-7-(7)-7-7-7-7-7-7-|
|-0-0-0-0-0-0-0-0-0-|-(0)-0-0-0-0-0-(0)-0-0-0-0-0-0-|
|-------------------|-------------------------------|
|
| W                   +H             Q      S S S S
|-------------------|-------------------------------|
|-------------------|-------------------------------|
|-------------------|-------------------------------|
|-7-----------------|-(7)---------------------7-7-7-|
|-------------------|-------------------------------|
|-------------------|-------------------------------|


  E E E S S S S S S S S S S
|-5-5-5-5-5-5-5-5-5-5-5-5-5--|
|-5-5-5-5-5-5-5-5-5-5-5-5-5--|
|-6-6-6-6-6-6-6-6-6-6-6-6-6--|
|-7-7-7-7-7-7-7-7-7-7-7-7-7--|
|-0-0-0-0-0-0-0-0-0-0-0-0-0--|
|----------------------------|
|
| W
|----------------------------|
|----------------------------|
|----------------------------|
|-7--------------------------|
|----------------------------|
|----------------------------|


                                                                  To Coda
  Bm7/A                           Bm9/A          BmA/A
   E  E S S S S S S S S S S S S   Q  E S S E S S E E    E  E E E E E E E
|-------7-7-7-7-7-7-7-7-7-7-7-x-|-9--9-9-9-9-9-9-7-5-|--5--5-5-5-5-5-5-5---||
|--7--7-7-7-7-7-7-7-7-7-7-7-7-x-|-7--7-7-7-7-7-7-7-5-|--5--5-5-5-5-5-5-5---||
|--7--7-7-7-7-7-7-7-7-7-7-7-7-x-|-7--7-7-7-7-7-7-7-6-|--6--6-6-6-6-6-6-6---||
|--7--7-7-7-7-7-7-7-7-7-7-7-7-x-|-7--7-7-7-7-7-7-7-7-|--7--7-7-7-7-7-7-7---||
|--0--0-0-0-0-0-0-0-0-0-0-0-0---|-0--0-0-0-0-0-0-0-0-|--0--0-0-0-0-0-0-0---||
|-------------------------------|--------------------|---------------------||
|
| +H            Q       S S S S   W                    +H        H
|-------------------------------|--------------------|---------------------||
|-------------------------------|--------------------|---------------------||
|-------------------------------|--------------------|---------------------||
|-(7)---------------------7-7-7-|-7------------------|-(7)-----------------||
|-------------------------------|--------------------|---------------------||
|-------------------------------|--------------------|---------------------||


 Interlude
  Bm                           E
  E S S  S  S E E S S S S  E    E  E E S S E E S S S S
|-2-2-2--2--2-2-2-2-2-2-2--x-|--0--0-0-0-0-0-0-0-0-0-x-|
|-3-3-3--3--3-3-3-3-3-3-3--x-|--0--0-0-0-0-0-0-0-0-0-x-|
|-4-4-4--4--4-4-4-4-4-4-4--x-|--1--1-1-1-1-1-1-1-1-1-x-|
|-4-4-4--4--4-4-4-4-4-4-4--x-|--2--2-2-2-2-2-2-2-2-2---|
|-2-2-2--2--2-2-2-2-2-2-2----|--2--2-2-2-2-2-2-2-2-2---|
|----------------------------|--0--0-0-0-0-0-0-0-0-0---|
|
| E E   +H            S E.      W
|-5s7---(7)-----------5s7----|--4----------------------|
|----------------------------|-------------------------|
|-6s7---(7)-----------6s7----|-(7)---------------------|
|----------------------------|-------------------------|
|----------------------------|-------------------------|
|----------------------------|-------------------------|
  H             Q     S E.     +W


  Bm
  E E  S S S S S S E  S S S S
|-2-2--2-2-2-2-2-2-2--2-2-x-x-|
|-3-3--3-3-3-3-3-3-3--3-3-x-x-|
|-4-4--4-4-4-4-4-4-4--4-4-x-x-|
|-4-4--4-4-4-4-4-4-4--4-4-----|
|-2-2--2-2-2-2-2-2-2--2-2-----|
|-----------------------------|
|
| E Q.         E   Q.
|-5s7----------7s==5----------|
|-----------------------------|
|-6s7----------7--------------|
|-----------------------------|
|-----------------------------|
|-----------------------------|
  H            H


  E                          C#m                      F#7
   E  E  E S S  S  S E E E   E    S S  E  E E E E E    E  E E E E S S S S S S
|--0--0--0-0-0--0--0-0-0---|-4----4-4--4--4-4-4-4---|--0--0-0-0-0-0-0-0-0-0-0--|
|--0--0--0-0-0--0--0-0-0-x-|-5----5-5--5--5-5-5-5---|--2--2-2-2-2-2-2-2-2-2-2--|
|--1--1--1-1-1--1--1-1-1-x-|-6----6-6--6--6-6-6-6-x-|--3--3-3-3-3-3-3-3-3-3-3--|
|--2--2--2-2-2--2--2-2-2-x-|-6----6-6--6--6-6-6-6-x-|--4--4-4-4-4-4-4-4-4-4-4--|
|--2--2--2-2-2--2--2-2-2---|-4----4-4--4--4-4-4-4-x-|--4--4-4-4-4-4-4-4-4-4-4--|
|--0--0--0-0-0--0--0-0-0---|------------------------|--------------------------|
|
| +E  Q.       +H            S E.     +H.              H.             Q
|-(5)s4--------(4)---------|-7s9------(9)-----------|-14-----------------------|
|--------------------------|------------------------|--------------------------|
|--------------------------|-9----------------------|-15-----------------------|
|--------------------------|------------------------|--------------------------|
|--------------------------|------------------------|--------------------------|
|--------------------------|------------------------|--------------------------|
                             W


                                           D.S. al Coda &
  Bm                              E
   E     S S   S  S E E E E S S    E  E E E  S S E E E
|--2-----2-2---2--2-2-2-2-2-x-x-|--0--0-0-0--0-0-0-0-x--||
|--3-----3-3---3--3-3-3-3-3-x-x-|--0--0-0-0--0-0-0-0-x--||
|--4-----4-4---4--4-4-4-4-4-----|--1--1-1-1--1-1-1-1-x--||
|--4-----4-4---4--4-4-4-4-4-----|--2--2-2-2--2-2-2-2----||
|--2-----2-2---2--2-2-2-2-2-----|--2--2-2-2--2-2-2-2----||
|-------------------------------|--0--0-0-0--0-0-0-0----||
|
|  S  E.      +H          E E      Q    Q    H
|-------------------------------|-------7---10----------||
|-10s12------(12)---------7s9---|-(9)--------------9----||
|-------------------------7s9---|-(9)-------------------||
|-11s12------(12)---------------|-----------------------||
|-------------------------------|-----------------------||
|-------------------------------|-----------------------||
                                  +H.              Q


 Outro
  Bm
  E    S S  S  S E E S S S S  S S
|-2----2-2--2--2-2-2-2-2-2-2--2-x-|
|-3----3-3--3--3-3-3-3-3-3-3--3-x-|
|-4----4-4--4--4-4-4-4-4-4-4--4-x-|
|-4----4-4--4--4-4-4-4-4-4-4--4---|
|-2----2-2--2--2-2-2-2-2-2-2--2---|
|---------------------------------|
|
| S E.     +H            S E.
|-5-7------(7)-----------5s7------|
|---------------------------------|
|-6-7------(7)-----------6s7------|
|---------------------------------|
|---------------------------------|
|---------------------------------|


  E
   E  E S S S S S S S S S S E
|--0--0-0---0-0-0-0-0-0-0-0---|
|--0--0-0---0-0-0-0-0-0-0-0-x-|
|--1--1-0h1---1-1-1-1-1-1-1-x-|
|--2--2-2---2-2-2-2-2-2-2-2---|
|--2--2-2---2-2-2-2-2-2-2-2---|
|--0--0-0---0-0-0-0-0-0-0-0---|
|  E  E E   S S H
|
| +W
|-(7)-------------------------|
|-----------------------------|
|-(7)-------------------------|
|-----------------------------|
|-----------------------------|
|-----------------------------|


  Bm                          E
  E    E  E  E S S E  S S E    E E S S S S E E S S E
|-2----2--2--2-2-2-2--2-2---|--0-0-0-0-0-0-0-0-0-0-x--|
|-3----3--3--3-3-3-3--3-3---|--0-0-0-0-0-0-0-0-0-0-x--|
|-4----4--4--4-4-4-4--4-4---|--1-1-1-1-1-1-1-1-1-1-x--|
|-4----4--4--4-4-4-4--4-4---|--2-2-2-2-2-2-2-2-2-2----|
|-2----2--2--2-2-2-2--2-2-0-|--2-2-2-2-2-2-2-2-2-2----|
|---------------------------|--0-0-0-0-0-0-0-0-0-0----|
|
| S E.   +H           Q        W
|-5s7----(7)---------10-----|-10----------------------|
|---------------------------|-------------------------|
|-6s7----(7)----------7-----|--7----------------------|
|---------------------------|-------------------------|
|---------------------------|-------------------------|
|---------------------------|-------------------------|


  C#m                              F#7
  E    S S  E  S S S S S S S S E    E E S S S S E E S S S S
|-4----4-4--4--4-4-4-4-4-4-4-4-x-|--0-0-0-0-0-0-0-0-0-0-0-0-|
|-5----5-5--5--5-5-5-5-5-5-5-5-x-|--2-2-2-2-2-2-2-2-2-2-2-2-|
|-6----6-6--6--6-6-6-6-6-6-6-6-x-|--3-3-3-3-3-3-3-3-3-3-3-3-|
|-6----6-6--6--6-6-6-6-6-6-6-6---|--4-4-4-4-4-4-4-4-4-4-4-4-|
|-4----4-4--4--4-4-4-4-4-4-4-4---|--4-4-4-4-4-4-4-4-4-4-4-4-|
|--------------------------------|--------------------------|
|
| S E.     +H.                      W
|-7s9------(9)-------------------|-14-----------------------|
|--------------------------------|--------------------------|
|-9------------------------------|-15-----------------------|
|--------------------------------|--------------------------|
|--------------------------------|--------------------------|
|--------------------------------|--------------------------|
  W


  Bm                         E
   E S S E E S S E S S S S   Q  Q    E E  S S S S
|--2-2-2-2-2-2-2-2-2-2-x-x-|-0--0----0-0--0-0-0-0---|
|--3-3-3-3-3-3-3-3-3-3-x-x-|-0--0----0-0--0-0-0-0---|
|--4-4-4-4-4-4-4-4-4-4-----|-1--1----1-1--1-1-1-1---|
|--4-4-4-4-4-4-4-4-4-4-----|-2--2----2-2--2-2-2-2---|
|--2-2-2-2-2-2-2-2-2-2-----|-2--2----2-2--2-2-2-2---|
|--------------------------|-0--0----0-0--0-0-0-0---|
|
|  Q     Q   H               H       Q    Q
|-14-----------------------|-------------10---------|
|--------------------------|----9---12--------------|
|-18-----------------------|----9-------------------|
|--------------------------|------------------------|
|--------------------------|------------------------|
|--------------------------|------------------------|
                             Q  H.


  A                 Bm
  E E E E E E E E   E E S S E E E S S S S
|-0-0-0-0-0-0-0-x-|-2-2-2-2-2-2-2-2-2-x-x-|
|-2-2-2-2-2-2-2-x-|-3-3-3-3-3-3-3-3-3-x-x-|
|-2-2-2-2-2-2-2---|-4-4-4-4-4-4-4-4-4-----|
|-2-2-2-2-2-2-2---|-4-4-4-4-4-4-4-4-4-----|
|-0-0-0-0-0-0-0---|-2-2-2-2-2-2-2-2-2-----|
|-----------------|-----------------------|


  E                   A
  E E E E E E E S S   E E E S S E E E E
|-0-0-0-0-0-0-0-0-0-|-0-0-0-0-0-0-0-0-0-*|
|-0-0-0-0-0-0-0-0-0-|-2-2-2-2-2-2-2-2-2-*|
|-1-1-1-1-1-1-1-1-1-|-2-2-2-2-2-2-2-2-2-*|
|-2-2-2-2-2-2-2-2-2-|-2-2-2-2-2-2-2-2-2-*|
|-2-2-2-2-2-2-2-2-2-|-0-0-0-0-0-0-0-0-0-*|
|-0-0-0-0-0-0-0-0-0-|-------------------*|            
Submit corrections

↑ Back to top | Tablatures and chords for acoustic guitar and electric guitar, ukulele, drums are parodies/interpretations of the original songs. You may use it for private study, scholarship, research or language learning purposes only