» » »

Neil Sedaka - Standingon The Inside Bass

Artists:  A B C D E F G H I J K L M N O P Q R S T U V W X Y Z # 

Standingon The Inside Bass

(ver. 1) Click to play this song!
Neil Sedaka
 Rating:
4/5 (4 votes)
    Standingon The Inside lessons Tabs too difficult? Try these video lessons and learn fast
                Standing on The Inside
Original artist Neil Sedaka released from his 1973 album
Sedakas Back, this single version reached number 26 in UK
charts. Original bassist Graham Gouldman.

Intro:                  Verse 1 (0.12)
G|----------------------|-------------------------------------------------|
D|---PIANO/DRUM INTRO---|-------------------------------------------------|
A|-------NO BASS--------|--------------9---9---9--------------9---9---9---|
E|----------------------|----7\5-5-6-7---7---7----7---5-5-6-7---7---7---7-|
                                               Verse 2:
G|--------------------------------------------|  |------------------|
D|--------------------------------------------|  |------------------|
A|-4-5-6-7---7---7---7---6-5-4---4---4---4----|  |------9---9---9---|
E|---------7---7---7---7-------4---4---4------|  |-5/-7---7---7---7-|

G|----------------------------------------------------------------------|
D|-----------------------0-1-2---2---2---2--------------4-4---4-----4-4-|
A|---------9---9---9---4-------2---2---2---2---22-0------------4--------|
E|-5-5-6-7---7---7---7------------------------------2-2---------2-2-----|

Chorus:
G|-----------------------------------------------------------------|
D|--------------------------------------------------4-4------------|
A|-5-5---4-4-------5-5---5-5------------5-5-4-2-2--------5-5---7-7-|
E|------------3-3-------5-----5-5---3-3----------------------------|

G|----------------|
D|-5-5-5-5---55-4-|
A|----------------|
E|----------------|

1st Instrumental Interlude:
G|---------------------|
D|---------------------|
A|-2---2---0-1-2---2---|
E|---2---2-------2---2-|

Repeat Verse 2:

Chorus 2:
G|----------------------------------------------------------------|
D|-------------------------------------------------4-4------------|
A|-5-5------------5-5---5-5--4-4-------5-5-4-2-2--------5-5---7-7-|
E|------5-5--3-3-------5-----------3-3----------------------------|

G|----------------|
D|-5-5-5-5---55-4-|
A|----------------|
E|----------------|

2nd Instrumental Interlude:
G|--------------------------------------------------|
D|----------------------------------------------0-1-|
A|-2---2---0-1-2---2---0-1-2---2---0-1-2---2-2-4----|
E|---2---2-------2---2-------2---2-------2----------|

Part Last Verse:
G|---------------------------------------------|
D|-2---2---2---2--------------4-4---4------4-4-|
A|---2---2---2---2---22-0------------4---------|
E|------------------------2-2---------2-2------|

Repeat Chorus 2:

Outro: (Repeat To Fade/End)
G|-------------|
D|-------------|
A|-2---2---0-1-|
E|---2---2-----|
            
Submit corrections

↑ Back to top | Tablatures and chords for acoustic guitar and electric guitar, ukulele, drums are parodies/interpretations of the original songs. You may use it for private study, scholarship, research or language learning purposes only