Home » N » Negrita »

Negrita - In Ogni Atomo Tabs

Artists:  A B C D E F G H I J K L M N O P Q R S T U V W X Y Z # 

In Ogni Atomo Tabs

(ver. 1) Click to play this song!
Negrita
[Intro]

RITMICA
D#|-5-x-5-x-5-x-5-x-5-x-5-x-5-x-5-x------------------------0----------------------|
A#|-7-x-7-x-7-x-7-x-7-x-7-x-7-x-7-x---------------0----------1--------------------|
F#|--------------------------------------------1------1--------0------------------|
C#|-----------------------------------------3-------3-----------------------------|
G#|---------------------------------------4-------4-------------------------------|
D#|-------------------------------------------------------------------------------|

SOLISTA (Con Bottleneck)
D#|------------------------------------------------------|              |-----------------------------|
A#|------------------------------------------------------|              |-----------------------------|
F#|--------11---- 11--12/13-11-----11--12/13--10----6----|  X2,alla fine|------/18--------------------|
C#|---6/--------11---------------11-------------------6--| al posto del |-----------------------------|
G#|------------------------------------------------------| sesto tasto  |-----------------------------|
D#|------------------------------------------------------| suonare      |-----------------------------|


[Verse 1] 

(Punta pure cio che hai, pensi troppo a cosa fai... Troppo vuoto quel che c'e, 
troppo vuoto anche
per me..)

RITMICA
D#|-------------------------------------------------------------------------------|
A#|-------------------------------------------------------------------------------|
F#|------6----6----6----6---------------------------------------------------------|
C#|------6----6----6----6---------------------------------------------------------|
G#|------4----4----4----4---------------------------------------------------------|
D#|-------------------------------------------------------------------------------|

SOLISTA 
(Perche a quelli come noi, serve spazio dare sai... Troppo vuoto quel che c'e, 
troppo vuoto anche
per me...)
D#|---------------------------------------------------------------------------|
A#|---------------------------------------------------------------------------|
F#|---11\------13\------10\-------6\------------------------------------------|
C#|---------------------------------------------------------------------------|
G#|---------------------------------------------------------------------------|
D#|---------------------------------------------------------------------------|


[Chorus]

(per il ritmo ascoltando la canzone si comprende)

D#|---------------------------------------------------------------------------|
A#|---------------------------------------------------------------------------|
F#|---7-----9-----------------------------------------------------------------|
C#|---7--7--9--9--------------------------------------------------------------|
G#|---5--7--7--9--------------------------------------------------------------|
D#|------5-----7--------------------------------------------------------------|


[Verse 2]

Qui,quando Pau canta "che si sciupano da se, siamo vuoti a perdere..."

D#|---------------------------------------------------------------------------|
A#|---------------------------------------------------------------------------|
F#|---------------------------------------------------------------------------|
C#|---11p10--11p10--11p10--11p10--11p10--11-----------------------------------|
G#|---------------------------------------------------------------------------|
D#|---------------------------------------------------------------------------|


E poi "che di donne come te, lasca stare non ce n'e...", ma non ne sono sicuro

D#|-1////////////12-----------------------------------------------------------|
A#|---------------------------------------------------------------------------|
F#|---------------------------------------------------------------------------|
C#|---------------------------------------------------------------------------|
G#|---------------------------------------------------------------------------|
D#|---------------------------------------------------------------------------|


[Interlude]

(In ogni atomo...)
RITMICA (Con Tremolo e delay)

D#|---------------------------------------------------------------------------|
A#|---------------------------------------------------------------------------|
F#|---------------------------------------------------------------------------|
C#|---5---4---2---------------------------------------------------------------|
G#|---5---4---2---------------------------------------------------------------|
D#|---3---2---0---------------------------------------------------------------|

SOLISTA
D#|---------------------------------------------------------------------------|
A#|---------------------------------------------------------------------------|
F#|---/16---11---9----/16---11--9---/16----18---\16-----14--------------------|
C#|---------------------------------------------------------------------------|
G#|---------------------------------------------------------------------------|
D#|---------------------------------------------------------------------------|

Dopo, durante il giro di basso, sono slide a caso lungo tutta la tastiera. Poi ripetere 
il riff dell'intro.


[Verse 3]

Con wah wah

D#|---------------------------------------------------------------------------|
A#|---------------------------------------------------------------------------|
F#|---11----12-13---11---12-13--10---12--13---6-------------------------------|
C#|----------------------------------------------6----------------------------|
G#|---------------------------------------------------------------------------|
D#|---------------------------------------------------------------------------|

Nel finale suonare in sequenza il ritornello e l'outro. Alla fine la chitarra solista fa 
una frase di questo
tipo, ma non ne sono sicuro al 100%
D#|---------------------------------------------------------------------------|
A#|---------------------------------------------------------------------------|
F#|------13p12p10--13p12p10--13p12p10-----------------------------------------|
C#|---------------------------------------------------------------------------|
G#|---------------------------------------------------------------------------|
D#|---------------------------------------------------------------------------|


[Outro]

(per il ritmo ascoltando la canzone si comprende)

D#|---------------------------------------------------------------------------|
A#|---------------------------------------------------------------------------|
F#|---7-----9-----------------------------------------------------------------|
C#|---7--7--9--9--------------------------------------------------------------|
G#|---5--7--7--9--------------------------------------------------------------|
D#|------5-----7--------------------------------------------------------------|

[Interlude]

(In ogni atomo...)
RITMICA (Con Tremolo e delay)

D#|---------------------------------------------------------------------------|
A#|---------------------------------------------------------------------------|
F#|---------------------------------------------------------------------------|
C#|---5---4---2---------------------------------------------------------------|
G#|---5---4---2---------------------------------------------------------------|
D#|---3---2---0---------------------------------------------------------------|

SOLISTA
D#|---------------------------------------------------------------------------|
A#|---------------------------------------------------------------------------|
F#|---/16---11---9----/16---11--9---/16----18---\16-----14--------------------|
C#|---------------------------------------------------------------------------|
G#|---------------------------------------------------------------------------|
D#|---------------------------------------------------------------------------|            
Submit corrections

↑ Back to top | Tablatures and chords for acoustic guitar and electric guitar, ukulele, drums are parodies/interpretations of the original songs. You may use it for private study, scholarship, research or language learning purposes only