» » »

Negative Approach - Cant Tell No One Bass

Artists:  A B C D E F G H I J K L M N O P Q R S T U V W X Y Z # 

Cant Tell No One Bass

(ver. 1) Click to play this song!
Negative Approach
 Rating:
4/5 (4 votes)
    Cant Tell No One lessons Tabs too difficult? Try these video lessons and learn fast
                CAN'T TELL NO ONE
as performed by Negative Approach

INTRO
G|-------------------------------------------------------------------------|
D|-------------------------------------------------------------------------|
A|-------------------------------------------------------------------------|
E|---8--9--9--9--9--9--9--9--9--9--9--9--9--9--9--9------------------------|

VERSE
G|-------------------------------------------------------------------------|
D|-------------------------------------------------------------------------|
A|---------------9------------------9--------------------------------------|
E|---9--9--9--9------9--9--9--9--9-----9--5--5--5--5--5--5--5--5-----------|

G|-------------------------------------------------------------------------|
D|-------------------------------------------------------------------------|
A|-------------------------------------------------------------------------|
E|---7--7--7--7--7--7--7--7------------------------------------------------|

CHORUS
G|-------------------------------------------------------------------------|
D|-------------------------------------------------------------------------|
A|---------------5-----------------7---------------------------------------|
E|---5--5--5--5-----5--7--7--7--7-----7------------------------------------|

INTRO x 4
VERSE x 2
CHORUS x 4
INTRO x 2
VERSE x 2
CHORUS x 4
INTRO x 4
VERSE x 2
CHORUS x 4
            
Submit corrections

↑ Back to top | Tablatures and chords for acoustic guitar and electric guitar, ukulele, drums are parodies/interpretations of the original songs. You may use it for private study, scholarship, research or language learning purposes only