» » »

Negativ - Ti Me Ne Volis Tabs

Artists:  A B C D E F G H I J K L M N O P Q R S T U V W X Y Z # 

Ti Me Ne Volis Tabs

(ver. 1) Click to play this song!
Negativ
 Rating:
4/5 (4 votes)

 Ti Me Ne Volis lessons Tabs too difficult? Try these video lessons and learn fast
 
                
 Legenda:

  h - hammer on
  p - pull off
  / - slide up
  \ - slide down
  b - bend
  r - release bend
  ~ - vibrato
  X - dead note
 ph - harmonics (svinja, sto bi se u narodu reklo :) )
      pravi se tako sto se odmah posle okidanja palcem desne ruke 
      tek dotakne zica
  
INTRO: 

(ko ne zna sta ovo znaci, neka svira ono u zagradi...)
E----------------------------------------------------------
H----------------------------------------------------------
G----------------------------------------------------------
D----------------------------------------------------------
A--9b(10)--8b(9)--9b(10)--11b(12)--9b(10)--8b(9)--9b(10)~~-
E----------------------------------------------------------


INTRO2 + REFREN:

   C5       G5       E5   F#5  G5   D5
E----------------------------------------------------------
H----------------------------------------------------------
G--5-555555-------------------------7-77-------------------
D--5-555555-5-555555-2-22-4-44-5-55-7-77-------------------
A--3-333333-5-555555-2-22-4-44-5-55-5-55-------------------
E-----------3-333333-0-00-2-22-3-33------------------------
         Aaaaaaaaaaaaaaaaaaaaaaa!

   C5       G5       E5        D5  ph
E----------------------------------v-----------------------
H----------------------------------------------------------
G--5-555555------------9-99-99-7-7-9~-----------------------
D--5-555555-5-555555---9-99-99-7-7-------------------------
A--3-333333-5-555555---7-77-77-5-5-------------------------
E-----------3-333333-0-0-00-00-----------------------------

   C5       G5       E5   F#5  G5   D5
E----------------------------------------------------------
H----------------------------------------------------------
G--5-555555-------------------------7-77-------------------
D--5-555555-5-555555-2-22-4-44-5-55-7-77-------------------
A--3-333333-5-555555-2-22-4-44-5-55-5-55-------------------
E-----------3-333333-0-00-2-22-3-33------------------------
   Ooooooooooooooooooooo!

   C5       G5         E5    D5
E---------------------------------------------------------
H---------------------------------------------------------
G--5-555555------------99-9--99-7\--99-9--99-7\-----------
D--5-555555-5-555555---99-9--99-7\--99-9--99-7\-----------
A--3-333333-5-555555---77-7--77-5\--77-7--77-5\-----------
E-----------3-333333---00-0--00-----00-0--00--------------
   Oooooooooooooooo!                Ooo


 VERSE:

   E5                         D5
E---------------------------------------------------------
H---------------------------------------------------------
G--9--XX------XX--XXXX--------7--XX------XX--XXXX---------
D--9--XX------XX--XXXX--------7--XX------XX--XXXX---------
A--7--XX------XX--XXXX--------5--XX------XX--XXXX---------
E---------------------------------------------------------
   Sada               shvatam sve

     E5                     A5          H5
E---------------------------------------------------------
H---------------------------------------------------------
G----9--XX------XX--XXXX----------------------------------
D----9--XX------XX--XXXX----7---7--XXX--9--9--------------
A----7--XX------XX--XXXX----7---7--XXX--9--9--------------
E---------------------------5---5--XXX--7--7--------------
Kada pogledam izbliza, kada sklonim zavese

 I vidim te kraj nje
 Samo imam jaku zelju da ti glavu razbijem, jer (refren)

 I necu da zaboravim
 Koliko si puta ti, zaboravio me
 I znam da KASNO JE da od nase tuzne price lepa bajka postane
            
Submit corrections


        Ti Me Ne Volis lessons Hard to play? Try these video lessons and learn fast Ti Me Ne Volis lessons
        
↑ Back to top | Tablatures and chords for acoustic guitar and electric guitar, ukulele, drums are parodies/interpretations of the original songs. You may use it for private study, scholarship, research or language learning purposes only