Home » N » Necrophobic »

Necrophobic - Roots Of Heldrasill Tabs

Artists:  A B C D E F G H I J K L M N O P Q R S T U V W X Y Z # 

Roots Of Heldrasill Tabs

(ver. 1) Click to play this song!
Necrophobic

Tuning:D standard  DGCFAD



|-------------------------------------------------------------------------------------|
|-------------------------------------------------------------------------------------| INTRO
|---------------------------9--8---5--4-----------------------5-----9---8---4--5------|
|--------------------2------x--x---x--x-----------------------5-----x---x---x--x------|
|--2-3-----5----3----2------7--6---3--2------2--3----5----3---3-----7---6---2--3------|
|--0-1--sl.3-sl.1----0-----------------------0--1-sl.3-sl.1---3-----------------------|




|------------------------------I-----------------------------------------------------|
|------------------------------I-----------------------------------------------------| VERSE+ FILL HARMONIES
|---4-4----5------8-7-8---7----I------------------------------------------0----------|
|---4-4----5------8-7-8---7----I----5-P-3--5---------------------0p-1-3------3--1--0-|
|---2-2----5------6-5-6---5----I--------------3-6-5--3H5-----3-----------------------|
|---2-2----3------6-5-6---5----I-----------------------------------------------------|


    Let ring...................................................................................

|---7--------7--------7--------7-----------------------------------------------------------------|
|-----------------------------------------8--------8--------8--------8---------7---------7-------| PRECHORUS
|-------9---------9--------9--------9---------9--------9--------9---------9----------9--------9--|
|------------------------------------------------------------------------------------------------|
|------------------------------------------------------------------------------------------------|
|------------------------------------------------------------------------------------------------|


Let ring...................................................

|-------------------------------------------------------------|
|--7-------7----------8---------8----------10-------10--------|
|-----9--------9-----------9--------9-----------9-------9-----|
|-------------------------------------------------------------|
|-------------------------------------------------------------|
|-------------------------------------------------------------|

  Repeat VERSE
  


|-----------------------------------------------------------------------------------------------| FASTER
|-----------------------------------------------------------------------------------------------|
|-----------------------------------------------------------------------------------------------| BRIDGE
|-----------------------------------------------------------------------------------------------|
|-------8-7--8-7-8--7--------8-7-8-7-8--5-vv--------8-7-8-7-8-7-vv------8-7-8---7----------8vv--|
|---0---------------------0--------------------0---------------------0-------------5---8--------|




|--------------------------------------------------------------------------------------|
|--------------------------------------------------------------------------------------| CHORUS
|--------------------------------------------------------------------------------------|
|--------------------------------------------------------------------------------------|
|--------------------------------------------------------------------------------------|
|--5555--3-5-6--5-3------6666-6h8-6-5-6-3----5555--3-5-6-5-3-----4444-4h6-4-3--4-1-----|


 AFTER CHORUS ENTER SOLO FOR BACK PLAY BRIDGE PART!
                    
                    CHORUS REPEAT!



      4X                          4X                       4x
|----------------------------------------------------------------------------|
|----------------------------------------------------------------------------| INTERLUDE
|--4----------------------------5------------------------3-------------------|
|--4--------4----4--4---4-------5--4--5--4-----5---2-----3---3--3--3---3-----|
|--2--------0----2--0---2-------3--2--3--2-----3---0-----1---0--1--0---1-----|
|--2--------0----2--0---2-------3--2--3--2-sl.-3---0-----1---0--1--0---1-----|




|-----------------------------------------------------------------------------------------------------|
|-----------------------------------------------------------------------------------------------------| FILL 
|-----------------------------------------------------------------------------------------------------|
|--9-999-9---7--9p7-7h9----10-101010--10h12-10-9-10-7---9-999--9---7-9p7--7h9----8-8888--8p10--8p7--5-|
|-----------------------------------------------------------------------------------------------------|
|-----------------------------------------------------------------------------------------------------|            
Submit corrections

↑ Back to top | Tablatures and chords for acoustic guitar and electric guitar, ukulele, drums are parodies/interpretations of the original songs. You may use it for private study, scholarship, research or language learning purposes only