Home » N » Necrophobic »

Necrophobic - Isaz Tabs

Artists:  A B C D E F G H I J K L M N O P Q R S T U V W X Y Z # 

Isaz Tabs

(ver. 1) Click to play this song!
Necrophobic
Tuning:D standard DGCFAd

d|---------------------------------------------------------------------------|
A|---------------------------------------------------------------------------|
F|---------------------------------------------------------------------------| intro
C|---------33--4------3--4-3-----------22--3------22--3--2-------------------|
G|---------------------------3-----------------------------3-----------------|
D|---0-1----------1----------------0----------00-----------------------------|


d|---------------------------------------------------------------------------|
A|---------------------------------------------------------------------------| pre-verse 0:14
F|---------------------------------------------------------------------------|
C|--------------------------------------------888-88-8-8---------------------|
G|----7h8p7-----------7h8p7--------7h8p7------666-66-6-6--8-8-8-8---9----8---|
D|----------00000000--------00--0--------000--------------6-6-6-6---6----6---|


d|---------------------------------------------------------------------------|
A|---------------------------------------------------------------------------| harmony  0:39
F|-----------------333--5-3-2------------------------------------------------|
C|----555--4---5-----------------444--3-4-44---3--1--0-----------------------|
G|---------------------------------------------------------------------------|
D|---------------------------------------------------------------------------|

  after harmony repeat pre-verse untill bridge!

d|---------------------------------------------------------------------------|
A|---------------------------------------------------------------------------| bridge 1:15
F|---------------------------------------------------------------------------|
C|----5------9----8-------12-------------------------------------------------|
G|----5------7----6-------10-------------------------------------------------|
D|----3------7----6--sl---10-------------------------------------------------|


d|---------------------------------------------------------------------------|
A|---------------------------------------------------------------------------| chorus 1:17
F|---------------------------------------------------------------------------|
C|---------------------------------------------------------------------------|
G|-------1-2-------5--------------66--------6--------------------------------|
D|---00--------3-------66---5---------66-5----6--5----3----------------------|


d|---------------------------------------------------------------------------|
A|---------------------------------------------------------------------------|
F|---------------------------------------------------------------------------|
C|---------8--9------------12----------------7-8--7----10--------------------|
G|----777----------10-10-------13--12----66---------8-------8----------------|
D|---------------------------------------------------------------------------|


d|---------------------------------------------------------------------------|
A|---------------------------------------------------------------------------| BRIDGE 1:39-1:46
F|---------------------------------------------------------------------------|
C|-----2------5----7----4----------------------------------------------------|
G|-----2------3----7----2----------------------------------------------------|
D|-----0------3----5----2----------------------------------------------------|

       

d|-------------------------------I--------------------------------------------|
A|-------------------------------I--------------------------------------------|
F|----------------8--------------I--------------------------------------------|  
C|---------77-6-----7--6---------I----7-----6-----2---3---6-------------------|
G|--------------------------7----I----7-----6-----2---3---6-------------------|
D|---5---------------------------I----5-----4-----0---1---4-------------------|

   Clean 1:46-2:11                                 BACK CHORDS FOR SOLO (listen song for timing)
            
Submit corrections

↑ Back to top | Tablatures and chords for acoustic guitar and electric guitar, ukulele, drums are parodies/interpretations of the original songs. You may use it for private study, scholarship, research or language learning purposes only