Home » N » Necrophobic »

Necrophobic - He Who Rideth In Rage Tabs

Artists:  A B C D E F G H I J K L M N O P Q R S T U V W X Y Z # 

He Who Rideth In Rage Tabs

(ver. 1) Click to play this song!
Necrophobic
Tuning: D standard   DGCFAD


|---------------------------------------------------------------------------|
|---------------------------------------------------------------------------| intro PART A
|---------------------------------------------------------------------------|
|---------------------------------------------------------------------------|
|----------------------------------------3--2--66-5--2----------------------|
|----1--4-33-4--4--3---0-------------1--------------------------------------|



|----------------------------------------3-----------------------------------|
|----------------------------------------3-----------------------------------| PART B 
|----------------------------------------3-----------------------------------|       
|-------5-4p5-------------5--4p5---------5-----------------------------------|  0:23-
|--2-----------7------2------------7-----5--chord G play 4x------------------|
|--0-----------0------0------------0-----3-----------------------------------|


|---------------------------------------------------------------------------|  
|---------------------------------------------------------------------------|PART C
|-----5-4-5-----------------10-9-10-7---------------------------------------|
|--2--2-2-2--2-----5-----7--0--0-0--0---------------------------------------|  0:35-
|--0---------0-----3-sl--5--------------------------------------------------|
|---------------------------------------------------------------------------|


|---------------------------------------------------------------------------|  
|---------------------------------------------------------------------------| PART D
|---------------------------------------------------------------------------|
|-----5-4p5-----7-7-7-7--7--7------3-3-3-3----3--3--------------------------| 0:38-0:59
|-2----------7--7-7-7-7--7--7------3-3-3-3----3--3--------------------------|
|-0----------0--5-5-5-5--5--5------1-1-1-1----1--1--------------------------|



|---------------------------------------------------------------------------------------|
|---------------------------------------------------------------------------------------| PART E
|---------------------------------------------------------------------------------------|
|------------------------------99-1010-99-77----------7p-9-7-9--99-1010--99-77----------|harmonic interlude
|--77777777---55555---------------------------10--7v----------------------------10---7--|
|---------------------3333--------------------------------------------------------------| 1:00
                            

        PART F- clean

|---------------------------0---------1-----------3-----------5---------------------| im not sure about this
|-----6----------3-------------------------------------------------------------5----| 100% but sound pretty 
|-----7--------2--------2----------2----------2----------2------------5--------5----| close figured
|-----7------0-------0----------0---------0-----------0-------------5--------5------|
|-----5-----------------------------------------------------------3------3----------|  1:36-
|-----------------------------------------------------------------------------------|



               PART G  1:50  Slower                                           PART G1- 2:21
|------------------------------------------------------------------!----------------------------------|
|------------------------------------------------------------------!----------------------------------|
|---7----2---5-----------------------------------------------------!----------------------------------|
|---7----2---5---7---5--7------3--2--3---2--2-----3--2--3---5--7---!--7---3--6----5---7---3---6-6-----|
|---5----0---3---5---5--5------5--5--5---0--3-----5--5--5---5--5---!--5---1--4--7-3---5---1---4-4-----|
|------------------------------------------------------------------!--5---1--4--5-----5---1---4-4-----|



|---------------------------------------------------------------------------|  PART F
|---------------------------------------------------------------------------|
|---------------------------------------------------------------------------|  2:35
|---------------------------------78-7-5-7-5-----5--------------------------|
|--5-0-5-7h87---5-0--5--7h8--5v---------------8-----8-7--5h-7-4-------------|
|---------------------------------------------------------------------------|

          
            PART G -Faster tempo  3:05
!----------------------------------------------------------------------------------------------!
!----------------------------------------------------------------------------------------------!
!----------------------------------------------------------------------------------------------!
!-------55-44-55--------55-44-55-------55-44--55-------------------------55--44-55-------------!
!------------------------------------------------------5---7--3----------------------7-7--3--5-!
!--0---------------0---------------0----------------0--3---5--1------0---------------5-5--1--3-!



!---------------------------------------------!  PART H
!---------------------------------------------!
!---6-6-6--5-5----5-5-5--6-6------------------!    3:27-3:41
!---3-3-3--3-3----4-4-4--4-4------------------!
!---------------------------------------------!
!---------------------------------------------!


play PART G
play PART  E  for finish!
            
Submit corrections

↑ Back to top | Tablatures and chords for acoustic guitar and electric guitar, ukulele, drums are parodies/interpretations of the original songs. You may use it for private study, scholarship, research or language learning purposes only