Home » N » Necrophagia »

Necrophagia - The Cross Burns Black Tabs

Artists:  A B C D E F G H I J K L M N O P Q R S T U V W X Y Z # 

The Cross Burns Black Tabs

(ver. 1) Click to play this song!
Necrophagia
Tuned to Eb

Verse Pt.1
-------------------------------------------------------
-------------------------------------------------------
-------------------------------------------------------
-----------------------5h6p5h7-------------------------
-2h3-------------------5h6p5h7-------------------------
-0h1-000000000000000000--------------------------------
     Palm Mute-------->
Repeat that several times


Chorus
-------------------------------------------------------
-------------------------------------------------------
-------------------------------------------------------
-777-555--55555-777-666--55555-777-666---55555-777-666-
-777-555--55555-777-666--55555-777-666---55555-777-666-
-------------------------------------------------------


-------------------------------------------------------
-------------------------------------------------------
-------------------------------------------------------
-55555-77777-55555-77777-55555-77777-555555-777-666----
-55555-77777-55555-77777-55555-77777-555555-777-666----
-------------------------------------------------------


-------------------------------------------------------
-------------------------------------------------------
-------------------------------------------------------
-55555-777-666--55555-777-666--55555-7777-666----------
-55555-777-666--55555-777-666--55555-7777-666----------
-------------------------------------------------------


Fill A.
-----------------------------
-----------------------------
-----------------------------
-----------------------------
-000000000000000000----------
-000000000000000000----------
 Palm Mute-------->

Then Play Verse Pt.1

Then Play Chorus

Verse Pt.2
--------------------------------------------------------
--------------------------------------------------------
--------------------------------------------------------
----Bend up 1/2 step------------------------------------
------^----^-^------------------------------------------
-0000-5-00-3-3------------------------------------------
 Palm   PM
 Mute
Repeat Several Times

The Verse Pt.2 turns into this towards the end of it
--------------------------------------------------------
--------------------------------------------------------
--------------------------------------------------------
------5---Bend up 1/2 step------------------------------
------5----^-^------------------------------------------
-0000-5-00-3-3------------------------------------------
 Palm   PM
 Mute
Play That A Couple Times At The End Of Verse Pt.2

Solo Type Deal
----------------------------------------------------------
----------------------------------------------------------
----------------------------------------------------------
-----------------------------------Bend  up 1/2 step------
-------------------7-------------------^------------------
-003-003-003-003-005-003-003-003-003-003-003-003-003-003--


----------------------------------------------------------
----------------------------------------------------------
----------------------------------------------------------
----------------Bend up 1/2 step--------------------------
---7-------------------^----------------------------------
-005-003-003-003-003-003-2--------------------------------
Play Twice

Then Play Verse Pt.2

Fill B.
----------------------
----------------------
----------------------
---------Bend Up 1/2 Step
-3-4-5-6-7-5-7-6-^-^--
-3-4-5-6-7-5-7-6-9-8--
Play Several Times

Then Play Verse Pt.1

Then Play The Chorus
            
Submit corrections

↑ Back to top | Tablatures and chords for acoustic guitar and electric guitar, ukulele, drums are parodies/interpretations of the original songs. You may use it for private study, scholarship, research or language learning purposes only