Home » N » Necrophagia »

Necrophagia - Forbidden Pleasure Tabs

Artists:  A B C D E F G H I J K L M N O P Q R S T U V W X Y Z # 

Forbidden Pleasure Tabs

(ver. 1) Click to play this song!
Necrophagia
[Acoustic Intro/Season Of The Dead] (almost fully tabbed)
 
e|------------------------------------0-----------|
B|---------0----------------------0---------------|
G|-------7----------------------7-----------------|
D|-----5----------------------5-------------------|
A|---7----------------------7---------------------|
E|-0----------------------0-----------------------| 
 
e|------------------------------------0-----------|
B|---------0----------------------0---------------|
G|-------5----------------------5-----------------|
D|-----3----------------------3-------------------|
A|---5----------------------5---------------------|
E|-0----------------------0-----------------------| 
 
e|-------0-------------0---5------------|
B|-----6-------------6------------------|
G|---7-------------7--------------------|
D|--------------------------------------|
A|-5-------------5----------------------|
E|--------------------------------------| 
 
 
e|-------0-------------0---5------------|
B|-----6-------------6------------------|
G|---7-------------7--------------------|
D|--------------------------------------|
A|-5-------------5----------------------|
E|--------------------------------------| 
 
e|-------0-----------5-----------0-----------5------|
B|-----6---6-------6---6-------6---6-------6---6----|
G|---7-------7---7-------7---7-------7---7-------7--|
D|--------------------------------------------------|
A|-5-----------5-----------5-----------5------------|
E|--------------------------------------------------| 
 
e|-------3-----------3---------0-----------5-----------0-----------5-----|
B|-----4---4-------4---4-----6---6-------6---6-------6---6-------6---6---|
G|---5-------5---5---------7-------7---7-------7---7-------7---7-------7-|
D|-----------------------------------------------------------------------|
A|-3-----------3---------5-----------5-----------5-----------5-----------|
E|-----------------------------------------------------------------------| 
 
 
e|-------3-----------3---------0-----------5-------|
B|-----4---4-------4---4-----6---6-------6---6-----|
G|---5-------5---5---------7-------7---7-------7---|
D|-------------------------------------------------|
A|-3-----------3---------5-----------5-----------5-|
E|-------------------------------------------------| 
 
e|-----------------------------------------------------------------|
B|-------8-----7-----8-----7-----10-----10-----10-7-----8-----7----|
G|-----7---7-----7-----7-----7------7------7--------7-----7-----7--|
D|---9-------9-----9-----9-----9------9------9--------9-----8------|
A|-7---------------------------------------------------------------|
E|-----------------------------------------------------------------| 
 
e|--------------------------------------------------------------|
B|-------4-----3-----4-----3-----6-----6-----6-3-----4-----3----|
G|-----3---3-----3-----3-----3-----3-----3-------3-----3-----3--|
D|---5-------5-----5-----5-----5-----5-----5-------5-----5------|
A|-3------------------------------------------------------------|
E|--------------------------------------------------------------| 
 
 
 
 
 
[Verse 1/Forbidden Pleasure]
 
BPM = 140
 
e|---------------------------------------------------------------|
B|---------------------------------------------------------------|
G|---------------------------------------------------------------|
D|---------------------------------------------------------------| x 4
A|---------------------------------------------------------------|
E|-2-2-2-2-2-2-2-2-2-2-2-6-6-6-6-5-5-5-5-5-5-5-5-5-5-5-5-5-5-5-5-|
 
e|---------------------------------------------------------------|
B|---------------------------------------------------------------|
G|---------------------------------------------------------------|
D|---------------------------------------------------------------|
A|---------------------------------------------------------------|
E|-7-7-7-7-7-7-7-7-7-7-7-8-8-8-8-6-6-6-6-6-6-6-6-6-6-6-6-6-6-6-6-| 
 
e|--------------------------------------------|
B|--------------------------------------------|
G|--------------------------------------------|
D|-------------------------------8------------|
A|-------------------------------8------------|
E|-7-7-7-7-7-7-7-7-7-7-7-8-8-8-8-6------------| 
 
[Bridge]
 
BPM = 140
 
e|--------------------------------------------------------------------|
B|--------------------------------------------------------------------|
G|--------------------------------------------------------------------|
D|-----------------------------------------------------------------8\-| x 2
A|---8-10-8---8-10-8---8-10-8---8-10-8---8-10-8---8-10-8---8-10-8--8\-|
E|-9--------7--------9--------7--------9--------7--------9---------6\-| 
 
e|-------------------------------------------------------------------------------------|
B|-------------------------------------------------------------------------------------|
G|-------------------------------------------------------------------------------------|
D|----11-13-11----11-13-11----11-13-11---8-10-8----11-13-11----11-13-11----11-13-11-8\-| x 2
A|-12----------10----------12----------9--------12----------10----------12----------8\-|
E|----------------------------------------------------------------------------------6\-| 
 
[Interlude]
 
BPM = 209
 
e|-------------------------------------------------------------------|
B|-------------------------------------------------------------------|
G|-------------------------------------------------------------------|
D|-------------------------------------------------------------------| x 2
A|-0tr-------1-1-1-1-0tr-------1-1-3t-------1-1-1-1-3t-------1-1-1-1-|
E|-------------------------------------------------------------------|
 
After 1st time, the 2nd guitar comes in
 
e|--------------------------------------------------------------------------------------------|
B|--------------------------------------------------------------------------------------------|
G|--------------------------------------------------------------------------------------------|
D|-7-7-7-7-7-7-7-7-8-8-8-8-7-7-7-7-7-7-7-7-8-8-8-8-7-7-7-7-7-7-7-7-8-8-7-7-10-10-7-7-8-8-7-7--|
A|--------------------------------------------------------------------------------------------|
E|--------------------------------------------------------------------------------------------|
 
e|-----------------------------------------------------------------------------------------|
B|-----------------------------------------------------------------------------------------|
G|-5-5-5-5-5-5-5-5-6-6-6-6-5-5-5-5-5-5-5-5-6-6-6-6-5-5-5-5-5-5-5-5-6-6-5-5-8-8-5-5-6-6-5-5-|
D|-----------------------------------------------------------------------------------------|
A|-----------------------------------------------------------------------------------------|
E|-----------------------------------------------------------------------------------------|
 
[Solo]
 
Solo is not tabbed out yet, but here is the backing riff
 
BPM = 140
 
P.M                        |--|                        |--------|
 
e|---------------------------------------------------------------------|
B|---------------------------------------------------------------------|
G|---------------------------------------------------------------------|
D|-----------------------------3---------------------------------5-----|
A|-3-2-----3-2-------3-2---3-2-1-----3-2-----3-2-------3-2-------3-----|
E|-1-0-0-0-1-0-0-0-0-1-0-0-1-0-------1-0-0-0-1-0-0-0-0-1-0-0-3-2-------| 
 
P.M                        |--|                        |--------|
 
e|---------------------------------------------------------------------|
B|---------------------------------------------------------------------|
G|---------------------------------------------------------------------|
D|-----------------------------3---------------------------------6-----|
A|-3-2-----3-2-------------3-2-1-----3-2-----3-2-------3-2-------4-----|
E|-1-0-0-0-1-0-0-0-0-1-0-3-1-0-------1-0-0-0-1-0-0-0-0-1-0-0-3-2-------| 
 
P.M                        |--|                        |--------|
 
e|---------------------------------------------------------------------|
B|---------------------------------------------------------------------|
G|---------------------------------------------------------------------|
D|-----------------------------3---------------------------------5-----|
A|-3-2-----3-2-------3-2---3-2-1-----3-2-----3-2-------3-2-------3-----|
E|-1-0-0-0-1-0-0-0-0-1-0-0-1-0-------1-0-0-0-1-0-0-0-0-1-0-0-3-2-------| 
 
P.M                        |--|                        |--------|
 
e|---------------------------------------------------------------------|
B|---------------------------------------------------------------------|
G|---------------------------------------------------------------------|
D|-----------------------------3---------------------------------6-----|
A|-3-2-----3-2-------------3-2-1-----3-2-----3-2-------3-2-------4-----|
E|-1-0-0-0-1-0-0-0-0-1-0-3-1-0-------1-0-0-0-1-0-0-0-0-1-0-0-3-2-------| 
 
[Verse 3]
 
BPM = 140
 
e|---------------------------------------------------------------|
B|---------------------------------------------------------------|
G|---------------------------------------------------------------|
D|---------------------------------------------------------------| x 4
A|---------------------------------------------------------------|
E|-2-2-2-2-2-2-2-2-2-2-2-6-6-6-6-5-5-5-5-5-5-5-5-5-5-5-5-5-5-5-5-|
 
e|---------------------------------------------------------------|
B|---------------------------------------------------------------|
G|---------------------------------------------------------------|
D|---------------------------------------------------------------| x 2
A|---------------------------------------------------------------|
E|-7-7-7-7-7-7-7-7-7-7-7-8-8-8-8-6-6-6-6-6-6-6-6-6-6-6-6-6-6-6-6-|  
 
 
e|---------------------------------------------------------------|
B|---------------------------------------------------------------|
G|---------------------------------------------------------------|
D|---------------------------------------------------------------|
A|---------------------------------------------------------------|
E|-2-2-2-2-2-2-2-2-2-2-2-6-6-6-6-5-5-5-5-5-5-5-5-5-5-5-5-5-5-5-5-|
 
e|-----------------------------------------|
B|-----------------------------------------|
G|-----------------------------------------|
D|-----------------------8-------7---------|
A|-----------------------8-------7---------|
E|-2-2-2-2-2-2-2-2-2-2-2-6---6---5---------|
 
[Outro]
 
BPM = 140
 
e|--------------------------------------------------------------------|
B|--------------------------------------------------------------------|
G|--------------------------------------------------------------------|
D|-----------------------------------------------------------------8\-| x 2
A|---8-10-8---8-10-8---8-10-8---8-10-8---8-10-8---8-10-8---8-10-8--8\-|
E|-9--------7--------9--------7--------9--------7--------9---------6\-| 
 
e|-------------------------------------------------------------------------------------|
B|-------------------------------------------------------------------------------------|
G|-------------------------------------------------------------------------------------|
D|----11-13-11----11-13-11----11-13-11---8-10-8----11-13-11----11-13-11----11-13-11-8\-|
A|-12----------10----------12----------9--------12----------10----------12----------8\-|
E|----------------------------------------------------------------------------------6\-| 
 
e|-------------------------------------------------------------------------------------|
B|-------------------------------------------------------------------------------------|
G|-------------------------------------------------------------------------------------|
D|----11-13-11----11-13-11----11-13-11---8-10-8----11-13-11----11-13-11----11-13-11-8--|
A|-12----------10----------12----------9--------12----------10----------12----------8--|
E|----------------------------------------------------------------------------------6--| 
            
Submit corrections

↑ Back to top | Tablatures and chords for acoustic guitar and electric guitar, ukulele, drums are parodies/interpretations of the original songs. You may use it for private study, scholarship, research or language learning purposes only