Home » N » Necrophagia »

Necrophagia - Cannibal Holocaust Tabs

Artists:  A B C D E F G H I J K L M N O P Q R S T U V W X Y Z # 

Cannibal Holocaust Tabs

(ver. 1) Click to play this song!
Necrophagia
Intro
C:  |-----------------------------------------------------------------------------|
G:  |-----------------------------------------------------------------------------|
D#: |-----------------------------------------------------------------------------|
A#: |9-9-9-9-9-9-9-9\5/7-9-9-9-9-9-9-9-9-11-11-11-11-9-9-9-9-9-9-12-12-11-11-11-11|
F:  |7-7-7-7-7-7-7-7\3/5-7-7-7-7-7-7-7-7-9-9-9-9-7-7-7-7-7-7-7-7-10-10-9-9-9-9-9-9|
C:  |-----------------------------------------------------------------------------|

Post intro: this is where the guitar plays all of the ascending notes
C:  |----|
G:  |----|
D#: |----|
A#: |2~~~|
F:  |2~~~|
C:  |0~~~|

Verse intro: Only play this one time
C:  |---------------------------------------------------|
G:  |---------------------------------------------------|
D#: |---------------------------------------------------|
A#: |---------------------------------------------------|
F:  |--------------------5-------7-------5--------------|
C:  |3vb-0-0-0-0-0-0-0-0-3-0-0-0-5-0-0-0-3-0-0-0-0-0-0-0|

Actual verse
C:  |-------------------------------|
G:  |-------------------------------|
D#: |-------------------------------|
A#: |-------------------------------|
F:  |5-------7-------5--------------|
C:  |3-0-0-0-5-0-0-0-3-0-0-0-0-0-0-0|

Chorus
C:  |-----------------------------|
G:  |----------8-8-8-8-10-10-10-10|
D#: |----------7-7-7-7/9--9--9--9-|
A#: |----------5-5-5-5/7--7--7--7-|
F:  |4/7-7-7-7--------------------|
C:  |2/5-5-5-5--------------------|

Bridge 1
C:  |----------------------|
G:  |----------------------|
D#: |----------------------|
A#: |----------------------|
F:  |2-9-8-7-6-5-4tr5|
C:  |0-7-6-5-4-3-----|

Bridge 2
C:  |---------------------------------|
G:  |---------------------------------|
D#: |---------------------------------|
A#: |2-------9-11-9--12-11-14-13-16-15|
F:  |2--4tr5-7-9--7--10-9--12-11-14-13|
C:  |0--------------------------------|

Outro
C:  |---------------------------|
G:  |---------------------------|
D#: |---------------------------|
A#: |9/7\7-7\5-3----------------|
F:  |7/5\7-5\3-1-2-2-2-2-2-2-2-2|
C:  |------------0-0-0-0-0-0-0-0|
                 * * * * * * * *
            
Submit corrections

↑ Back to top | Tablatures and chords for acoustic guitar and electric guitar, ukulele, drums are parodies/interpretations of the original songs. You may use it for private study, scholarship, research or language learning purposes only