Home » N » NCT 127 »

NCT 127 - Punch Tabs

Artists:  A B C D E F G H I J K L M N O P Q R S T U V W X Y Z # 

Punch Tabs

(ver. 1) Click to play this song!
NCT 127
e|------2-|4-------|--------|--------|--------|--------|--------|--------|
B|--0-4---|--4-----|--------|--4-----|--------|--------|--------|--------|
G|1-------|----1---|--------|1---1---|--------|--------|--------|--------|
D|--------|------1-|----1-4-|------1-|--------|--------|----2---|2-------|
A|--------|--------|2-------|--------|------4-|--4-----|--------|--1-----|
E|--------|--------|--4-----|--------|4-------|4-----4-|------4-|--------|
 
This riff is repeated in many parts. Intro, Chrous, almost every parts in the song.
Some parts are an octave lower than guitar, but I don't have bass so...
 
Punch by NCT 127 has confusing structure. I marked time stamps on each part.
I tried to capture guitar-like riffs in OG song.
 
 
[Intro] 0:00-0:10
 
e|------2-|4-------|--------|--------|--------|--------|--------|--------|
B|--0-4---|--4-----|--------|--4-----|--------|--------|--------|--------|
G|1-------|----1---|--------|1---1---|--------|--------|--------|--------|
D|--------|------1-|----1-4-|------1-|--------|--------|----2---|2-------|
A|--------|--------|2-------|--------|------4-|--4-----|--------|--1-----|
E|--------|--------|--4-----|--------|4-------|4-----4-|------4-|--------|
 
e|------2-|4-------|--------|--------|--------|--------|--------|--------|
B|--0-4---|--4-----|--------|--4-----|--------|--------|--------|--------|
G|1-------|----1---|--------|1---1---|--------|--------|--------|--------|
D|--------|------1-|----1-4-|------1-|--------|--------|----2---|2-------|
A|--------|--------|2-------|--------|------4-|--4-----|--------|--1-----|
E|--------|--------|--4-----|--------|4-------|4-----4-|------4-|--------|
 
 
[Verse 1] 0:10-0:31
 
e|--------|--------|--------|--------|--------|--------|--------|--------|
B|--------|--------|--------|--------|--------|--------|--------|--------|
G|--------|--------|--------|--------|--------|--------|--------|--------|
D|--------|--------|--------|--------|--------|--------|--------|--------|
A|--------|--------|--------|--------|--------|--------|--------|--------|
E|--------|--------|--------|--------|--------|--------|--------|--------|
한 방 Puncher 다 휘청거려 해머 아웃 날려 'cause I'm a clean fighter
 
 
e|------2-|4-------|--------|--------|--------|--------|--------|--------|
B|--0-4---|--4-----|--------|--4-----|--------|--------|--------|--------|
G|1-------|----1---|--------|1---1---|--------|--------|--------|--------|
D|--------|------1-|----1-4-|------1-|--------|--------|----2---|2-------|
A|--------|--------|2-------|--------|------4-|--4-----|--------|--1-----|
E|--------|--------|--4-----|--------|4-------|4-----4-|------4-|--------|
뭘 망설여? 네 셔플은 느려 더 바짝 붙어 언제 깰래? Wake up
 
 
e|------2-|4-------|--------|--------|--------|--------|--------|--------|
B|--0-4---|--4-----|--------|--4-----|--------|--------|--------|--------|
G|1-------|----1---|--------|1---1---|--------|--------|--------|--------|
D|--------|------1-|----1-4-|------1-|--------|--------|----2---|2-------|
A|--------|--------|2-------|--------|------4-|--4-----|--------|--1-----|
E|--------|--------|--4-----|--------|4-------|4-----4-|------4-|--------|
Gong이 울려 함성도 커져 내 피가 끓어 거칠게 없어
 
e|------2-|4-------|--------|--------|--------|--------|--------|--------|
B|--0-4---|--4-----|--------|--4-----|--------|--------|--------|--------|
G|1-------|----1---|--------|1---1---|--------|--------|--------|--------|
D|--------|------1-|----1-4-|------1-|--------|--------|--------|--------|
A|--------|--------|2-------|--------|--------|--------|--------|--------|
E|--------|--------|--4-----|--------|--------|--------|--------|--------|
We the future and we are dreamers 링은 뒤집히고 우린 꽤 제법 하지
 
 
[Verse 2] 0:31-0:42, bass riff
 
e|--------|--------|--------|--------|--------|--------|--------|--------|
B|--------|--------|--------|--------|--------|--------|--------|--------|
G|--------|--------|--------|--------|--------|--------|--------|--------|
D|--------|--------|--------|--------|--------|--------|--------|--------|
A|--------|--------|--------|--------|--------|--------|--------|--------|
E|--------|--------|--------|--------|--------|--------|--------|--------|
Hot, hot, hot 자 더블 타임 스윙 내 귓속의 gig 그 비트 위로 힛
 
e|--------|--------|--------|--------|--------|--------|--------|--------|
B|--------|--------|--------|--------|--------|--------|--------|--------|
G|--------|--------|--------|--------|--------|--------|--------|--------|
D|--------|--------|--------|--------|--------|--------|----2---|2-------|
A|--------|--------|--------|--------|------4-|--4-----|--------|--1-----|
E|--------|--------|--------|--------|4-------|4-----4-|------4-|--------|
찢겨진 데시빌 On the thirty-second beat 한계 없는 gain My mix straight bang like
 
 
[Refrain] 0:42-0:52
 
e|--------|--------|--------|--------|--------|--------|--------|--------|
B|--------|--------|--------|--------|--------|--------|--------|--------|
G|--------|--------|--------|--------|--------|--------|--------|--------|
D|--------|--------|--------|--------|--------|--------|--------|--------|
A|--------|--------|--------|--------|--------|--------|--------|--------|
E|--------|--------|--------|--------|--------|--------|--------|--------|
Hot, hot, hot, 또 lick을 쏟아대
 
e|--------|--------|--------|--------|------2-|4-------|--------|--------|
B|--------|--------|--------|--------|--0-4---|--4-----|--------|--4-----|
G|--------|--------|--------|--------|1-------|----1---|--------|1---1---|
D|--------|--------|----2---|2-------|--------|------1-|----1-4-|------1-|
A|------4-|--4-----|--------|--1-----|--------|--------|2-------|--------|
E|4-------|4-----4-|------4-|--------|--------|--------|--4-----|--------|
Styles make a fight 거짓말 안 해 As high as we can get As loud as we can get
 
e|--------|--------|--------|--------|
B|--------|--------|--------|--------|
G|--------|--------|--------|--------|
D|--------|--------|----2---|2-------|
A|------4-|--4-----|--------|--1-----|
E|4-------|4-----4-|------4-|--------|
준비한 자가 차지해 We got the championship
 
 
[Pre-Chorus] 0:52-1:13
 
e|--------|--------|--------|--------|--------|--------|--------|--------|
B|--------|--------|--------|--------|--------|--------|0\4-----|--------|
G|--------|--------|--------|--------|--------|--------|--------|--------|
D|--------|--------|--------|--------|--------|--------|--------|--------|
A|--------|--------|--------|--------|--------|--------|--------|--------|
E|--------|--------|--------|--------|--------|--------|--------|--------|
거칠었던 라운드 난 다음을 준비해
 
e|--------|--------|--------|--------|--------|--------|--------|--------|
B|--------|--------|--------|--------|--------|--------|--------|--------|
G|--------|--------|--------|--------|--------|--------|--------|--------|
D|--------|--------|--------|--------|--------|--------|--------|--------|
A|--------|--------|--------|--------|--------|--------|--------|--------|
E|--------|--------|--------|--------|--------|--------|--------|--------|
메말랐던 너의 영혼 적셔 줄 나이기에
 
e|--------|--------|--------|--------|
B|--------|--------|--------|--------|
G|--------|--------|--------|--------|
D|--------|--------|--------|--------|
A|--------|--------|--------|--------|
E|--------|--------|--------|--------|
매 순간 처음인 듯 일어날 나이길
 
 
[Chorus] 1:13-1:23, lightly
 
e|------2-|4-------|--------|--------|--------|--------|--------|--------|
B|--0-4---|--4-----|--------|--4-----|--------|--------|--------|--------|
G|1-------|----1---|--------|1---1---|--------|--------|--------|--------|
D|--------|------1-|----1-4-|------1-|--------|--------|----2---|2-------|
A|--------|--------|2-------|--------|------4-|--4-----|--------|--1-----|
E|--------|--------|--4-----|--------|4-------|4-----4-|------4-|--------|
Ayy, we ballin' (Ballin') We fight together (Together)
 
e|------2-|4-------|--------|--------|--------|--------|--------|--------|
B|--0-4---|--4-----|--------|--4-----|--------|--------|--------|--------|
G|1-------|----1---|--------|1---1---|--------|--------|--------|--------|
D|--------|------1-|----1-4-|------1-|--------|--------|----2---|2-------|
A|--------|--------|2-------|--------|------4-|--4-----|--------|--1-----|
E|--------|--------|--4-----|--------|4-------|4-----4-|------4-|--------|
That punch, 날리고 더 뛰고 소리쳐, baby 가슴은 뜨거워, yeah, yeah
 
e|------2-|4-------|--------|--------|--------|--------|--------|--------|
B|--0-4---|--4-----|--------|--4-----|--------|--------|--------|--------|
G|1-------|----1---|--------|1---1---|--------|--------|--------|--------|
D|--------|------1-|----1-4-|------1-|--------|--------|----2---|2-------|
A|--------|--------|2-------|--------|------4-|--4-----|--------|--1-----|
E|--------|--------|--4-----|--------|4-------|4-----4-|------4-|--------|
Ayy, we ballin' 전부를 바꿀 파이터
 
e|------2-|4-------|--------|--------|--------|--------|--------|--------|
B|--0-4---|--4-----|--------|--4-----|--------|--------|--------|--------|
G|1-------|----1---|--------|1---1---|--------|--------|--------|--------|
D|--------|------1-|----1-4-|------1-|--------|--------|--------|--------|
A|--------|--------|2-------|--------|--------|--------|--------|--------|
E|--------|--------|--4-----|--------|--------|--------|--------|--------|
내 세상으로 와 우리가 누구야? Baby Ayy, we ballin'
 
 
[Verse 3] 1:23-1:45 Electric jazz piano
 
e|--------|--------|--------|--------|--------|--------|--------|--------|
B|--------|--------|--------|--------|--------|--------|--------|--------|
G|--------|--------|--------|--------|--------|--------|--------|--------|
D|--------|--------|--------|--------|--------|--------|--------|--------|
A|--------|--------|--------|--------|--------|--------|--------|--------|
E|--------|--------|--------|--------|--------|--------|--------|--------|
혼자만의 소우주, 그 안의 긴 긴 싸움 달리고 또 달려도 (Hey), 멀어 보인 그 출구
 
e|--------|--------|--------|--------|--------|--------|--------|--------|
B|--------|--------|--------|--------|--------|--------|--------|--------|
G|--------|--------|--------|--------|--------|--------|--------|--------|
D|--------|--------|--------|--------|--------|--------|--------|--------|
A|--------|--------|--------|--------|--------|--------|--------|--------|
E|--------|--------|--------|--------|--------|--------|--------|--------|
너의 신호 느꼈지, 나만 빛을 본거지 (Oh, yeah, we ballin') 풀려지는 그 비밀, 너만이 나의 exit
 
 
[Refrain] 1:45-1:56
 
e|------2-|4-------|--------|--------|--------|--------|--------|--------|
B|--0-4---|--4-----|--------|--4-----|--------|--------|--------|--------|
G|1-------|----1---|--------|1---1---|--------|--------|--------|--------|
D|--------|------1-|----1-4-|------1-|--------|--------|----2---|2-------|
A|--------|--------|2-------|--------|------4-|--4-----|--------|--1-----|
E|--------|--------|--4-----|--------|4-------|4-----4-|------4-|--------|
Ha, ha, ha, 쏟아진 환희 난 숨 몰아쉬어 눈 똑바로 떠
 
e|------2-|4-------|--------|--------|--------|--------|--------|--------|
B|--0-4---|--4-----|--------|--4-----|--------|--------|--------|--------|
G|1-------|----1---|--------|1---1---|--------|--------|--------|--------|
D|--------|------1-|----1-4-|------1-|--------|--------|--------|--------|
A|--------|--------|2-------|--------|------4-|--------|--------|--------|
E|--------|--------|--4-----|--------|4-------|4-------|--------|--------|
As high as we can get As loud as we can get 대세는 정해져 우리가 다 날려 punch
 
[Pre-Chorus] 1:56-2:06 There's piano ornament-y sound also
e|--------|--------|--------|--------|--------|--------|--------|--------|
B|--------|--------|--------|--------|--------|--------|--------|--------|
G|--------|--------|--------|--------|--------|--------|--------|--------|
D|--------|--------|--------|--------|--------|--------|--------|--------|
A|--------|--------|--------|--------|--------|--------|--------|--------|
E|--------|--------|--------|--------|--------|--------|--------|--------|
거칠었던 라운드 난 다음을 준비해 매 순간 처음인 듯 일어날 나이길
 
[Chorus] 2:06-2:14, lightly
 
e|------2-|4-------|--------|--------|--------|--------|--------|--------|
B|--0-4---|--4-----|--------|--4-----|--------|--------|--------|--------|
G|1-------|----1---|--------|1---1---|--------|--------|--------|--------|
D|--------|------1-|----1-4-|------1-|--------|--------|----2---|2-------|
A|--------|--------|2-------|--------|------4-|--4-----|--------|--1-----|
E|--------|--------|--4-----|--------|4-------|4-----4-|------4-|--------|
Ayy, we ballin' (Ballin') We fight together
 
e|------2-|4-------|--------|--------|
B|--0-4---|--4-0---|--------|--------|
G|1-------|------1-|--------|--------|
D|--------|--------|--------|--------|
A|--------|--------|--------|--------|
E|--------|--------|--------|--------|
That punch, 날리고
 
[Bridge] 2:14-2:35 Cheesy but cool guitar riffs + echo
 
e|--------|--------|--------|--------|9-------|7-------|4-2-4---|--------|
B|--------|--------|--------|--------|--------|--------|--------|--------|
G|--------|--------|--------|--------|--------|--------|--------|--------|
D|--------|--------|--------|--------|--------|--------|--------|--------|
A|--------|--------|--------|--------|--------|--------|--------|--------|
E|--------|--------|--------|--------|--------|--------|--------|--------|
이 빛 아래 꿈꾸는 듯해 
 
e|--------|--------|--------|--------|9-------|7-------|4-2-4---|--------|
B|--------|--------|--------|--------|--------|--------|--------|--------|
G|--------|--------|--------|--------|--------|--------|--------|--------|
D|--------|--------|--------|--------|--------|--------|--------|--------|
A|--------|--------|--------|--------|--------|--------|--------|--------|
E|--------|--------|--------|--------|--------|--------|--------|--------|
뜨거움이 멈추지 않기를 더 원해 One more time, one more time
 
e|--------|--------|--------|--------|--------|--------|--------|--------|
B|--------|--------|--------|--------|--------|--------|--------|--------|
G|--------|--------|--------|--------|--------|--------|--------|--------|
D|--------|--------|--------|--------|--------|--------|--------|--------|
A|--------|--------|--------|--------|--------|--------|--------|--------|
E|--------|--------|--------|--------|--------|--------|--------|--------|
큰 세계로 끝없이 달려가 후회 없
 
e|9-------|7-------|4-2-4---|--------|--------|--------|--------|--------|
B|--------|--------|--------|--------|--------|--------|--------|--------|
G|--------|--------|--------|--------|--------|--------|--------|--------|
D|--------|--------|--------|--------|--------|--------|--------|--------|
A|--------|--------|--------|--------|--------|--------|--------|--------|
E|--------|--------|--------|--------|--------|--------|--------|--------|
이 난 싸워볼래 My show goes on
 
[Bridge-like Chorus] 2:35-2:56 It's brass but... y'know
 
e|4-------|--------|--------|--------|--------|--------|--------|--------|
B|--------|2-------|7-------|5---4---|--------|--------|--------|--------|
G|--------|--------|--------|--------|--------|--------|--------|--------|
D|--------|--------|--------|--------|--------|--------|--------|--------|
A|--------|--------|--------|--------|--------|--------|--------|--------|
E|--------|--------|--------|--------|--------|--------|--------|--------|
 
e|--------|--------|--------|--------|--------|--------|--------|--------|
B|--------|--------|--------|--------|--------|--------|--------|--------|
G|--------|--------|--------|--------|--------|--------|--------|--------|
D|--------|--------|--------|--------|--------|--------|--------|--------|
A|--------|--------|--------|--------|--------|--------|--------|--------|
E|--------|--------|--------|--------|--------|--------|--------|--------|
Ayy, we ballin'
 
e|4-------|--------|--------|--------|--------|--------|--------|--------|
B|--------|2-------|7-------|5---4---|--------|--------|--------|--------|
G|--------|--------|--------|--------|--------|--------|--------|--------|
D|--------|--------|--------|--------|--------|--------|--------|--------|
A|--------|--------|--------|--------|--------|--------|--------|--------|
E|--------|--------|--------|--------|--------|--------|--------|--------|
 
e|--------|--------|--------|--------|--------|--------|--------|--------|
B|--------|--------|--------|--------|--------|--------|--------|--------|
G|--------|--------|--------|--------|--------|--------|--------|--------|
D|--------|--------|--------|--------|--------|--------|--------|--------|
A|--------|--------|--------|--------|--------|--------|--------|--------|
E|--------|--------|--------|--------|--------|--------|--------|--------|
Ayy, we ballin'
 
 
[Chorus] 2:56-3:24
 
e|--------|--------|--------|--------|--------|--------|--------|--------|
B|--------|--------|--------|--------|--------|--------|--------|--------|
G|--------|--------|--------|--------|--------|--------|--------|--------|
D|--------|--------|--------|--------|--------|--------|----2---|2-------|
A|--------|--------|--------|--------|------4-|--4-----|--------|--1-----|
E|--------|--------|--------|--------|4-------|4-----4-|------4-|--------|
Ayy, we ballin' (Ayy, we ballin') We fight together (We fight together)
 
3:01
e|------2-|4-------|--------|--------|--------|--------|--------|--------|
B|--0-4---|--4-----|--------|--4-----|--------|--------|--------|--------|
G|1-------|----1---|--------|1---1---|--------|--------|--------|--------|
D|--------|------1-|----1-4-|------1-|--------|--------|--------|--------|
A|--------|--------|2-------|--------|--------|--------|--------|--------|
E|--------|--------|--4-----|--------|4-------|--------|--------|--------|
We fight together (We fight together) That punch, 날리고 더 뛰고 소리쳐, baby 가슴은 뜨거워, yeah, yeah
 
e|------2-|4-------|--------|--------|--------|--------|--------|--------|
B|--0-4---|--4-----|--------|--4-----|--------|--------|--------|--------|
G|1-------|----1---|--------|1---1---|--------|--------|--------|--------|
D|--------|------1-|----1-4-|------1-|--------|--------|----2---|2-------|
A|--------|--------|2-------|--------|------4-|--4-----|--------|--1-----|
E|--------|--------|--4-----|--------|4-------|4-----4-|------4-|--------|
Ayy, we ballin' (Ayy, we ballin') 전부를 바꿀 파이터
 
e|------2-|4-------|--------|--------|--------|--------|--------|--------|
B|--0-4---|--4-----|--------|--4-----|--------|--------|--------|--------|
G|1-------|----1---|--------|1---1---|--------|--------|--------|--------|
D|--------|------1-|----1-4-|------1-|--------|--------|--------|--------|
A|--------|--------|2-------|--------|--------|--------|--------|--------|
E|--------|--------|--4-----|--------|4-------|--------|--------|--------|
내 세상으로 와 우리가 누구야? Baby Ayy, we ballin'
 
e|--------|--------|--------|--------|
B|--------|--------|--------|--------|
G|--------|--------|--------|--------|
D|--------|--------|--------|--------|
A|--------|--------|--------|--------|
E|--------|--------|--------|--------|
Ayy, we ballin'
            
Submit corrections

↑ Back to top | Tablatures and chords for acoustic guitar and electric guitar, ukulele, drums are parodies/interpretations of the original songs. You may use it for private study, scholarship, research or language learning purposes only