Home » N » Naxxerian »

Naxxerian - Cemetery Of The Damned Tabs

Artists:  A B C D E F G H I J K L M N O P Q R S T U V W X Y Z # 

Cemetery Of The Damned Tabs

(ver. 1) Click to play this song!
Naxxerian
Its In Standard Tuning, Enjoy :)

Intro:

----------------------------------------|
----------------------------------------|
----------------------------------------|
----------------------------------------| X3
-2--2-2-2-2--2-2-2-2--2-2-2-3-3-3-3-3-3-|
-0--0-0-0-0--0-0-0-0--0-0-0-1-1-1-1-1-1-|
pm.........................                          X3 (Whole Intro)

--------------------------------------|
--------------------------------------|
--------------------------------------|
--------------------------------------|
-2--2-2-2-2--2-2-2-2--2-2-2--3--3--3--|
-0--0-0-0-0--0-0-0-0--0-0-0--1--1--1--|
pm...................................


Main Riff:

----------------------------------------|
----------------------------------------|
----------------------------------------|
----------------------------------------| X3
-2--2-2-2-2--2-2-2-2--2-2-2-3-3-3-3-3-3-|
-0--0-0-0-0--0-0-0-0--0-0-0-1-1-1-1-1-1-|
    pm...    pm...    pm...                       X2 (Whole Main Riff)

--------------------------------------|
--------------------------------------|
--------------------------------------|
--------------------------------------|
-2--2-2-2-2--2-2-2-2--2-2-2--3--3--3--|
-0--0-0-0-0--0-0-0-0--0-0-0--1--1--1--|
    pm...    pm...    pm.............

Riff Fill:

--------------------------------------------------------------|
--------------------------------------------------------------|
----------------------------------------------------------12*-|
--------------------------------------------------------------|
-2~~-------2-2-2-2~~-------2-2-2-2~~-------2-2-2-2~~----------|
-0~~-------0-0-0-0~~-------0-0-0-0~~-------0-0-0-0~~----------|
           pm...           pm...           pm...

Verse Riff Same As Main Riff, Its Played 4 Times During The Verse.


Chorus:

----------------------------------------------|
----------------------------------------------|
----------------------------------------------|
----------------------------------------------| X4
-7----5--7--8--7--2--2-2-2--2-2-2--2-2-2--2-2-|
-5----3--5--6--5--0--0-0-0--0-0-0--0-0-0--0-0-|
      pm......    pm.........................

--------------|
--------------|
--------------|
--------------|
-5----7----2--|
-3----5----0--|
"And Your Rotting..."


Breakdown Riff 1:

---------------------------|
---------------------------|
---------------------------|
----------5-5-5-5-7-7-7-7--| X3
-2-2-2----3-3-3-3-5-5-5-5--|
-0-0-0----3-3-3-3-5-5-5-5--|
pm.....                             X4 (whole Breakdown Riff 1)

--------------------------|
--------------------------|
--------------------------|
----------2-2-7/5-5-5-5/3-|
-2-2-2----0-0-5/3-3-3-3/1-|
-0-0-0--------------------|
pm....................

Solo:
Wah:\/\/\/\/\/\/\/\/\/\//\/\/\
---------------------------------|
---------------------------------|
-9b9b9b9b9b9b9b9b9b9b9brp7h9-7---|
------------------------------9~-|
---------------------------------|
---------------------------------|
          ^^^^^^^^^^^^^^^^^^^^^^^^^^^^^^^^^^^^^^^^^^^^^^^^^^^^
-15-17-18-1817151817151716141716141514121514121211912119875875\-|
----------------------------------------------------------------|
----------------------------------------------------------------|
----------------------------------------------------------------|
----------------------------------------------------------------|
----------------------------------------------------------------|

---------------------------------------------------------------------|
---------------9-11-121212121212121212131313131313131515151515151515-|
--------8-10-11------------------------------------------------------|
-8-10-11-------------------------------------------------------------|
---------------------------------------------------------------------|
---------------------------------------------------------------------|

-----------------------------------------
-171717171717171717171718181818181818~~~-
-----------------------------------------|
-----------------------------------------|
-----------------------------------------|
-----------------------------------------|

Last Wah Part Of Solo:

Wah: \/\/\/\/\/\/\/\/\/\/\/\/\/\/\/\/\/\/\/\/\/\/\/\/\/
--------------------------------------------------------|
-15p12p0h14p12p0h15p12p0h14p12h15p12p0h14p12p0-15b-15b~-|
--------------------------------------------------------| X2
--------------------------------------------------------|
--------------------------------------------------------|
--------------------------------------------------------|
Wah:\/\/\/\/\/\/\/\/\/\/\/\/\/\/\/\/\/\/\/\/                  X2
-8p5p0h7p5p0h8p5p0h7p5p0h8p5p0h7p5p0-8b-8b~-|
--------------------------------------------|
--------------------------------------------|
--------------------------------------------| X2
--------------------------------------------|
--------------------------------------------|

Sick Breakdown Riff 2:

---------------------------------------------------|
---------------------------------------------------|
---------------------------------------------------|
---------------------------------------------------| X8
------------7------------5--------5------------7-5-|
-0-0-0-0-7h8--0-0-0-0-7h8--0-0-0-0-7h8-0-0-0-0-5-3-|
pm......      pm......     pm....     pm.....


Breakdown Riff 3: (right after last Chorus)

-------------------------------------------|
-------------------------------------------|
-------------------------------------------|
-------------------------------------------|
-2-2-2-2-2-2-2-2-2-2-2-2-2-2-2-2-2-2-2-2-5-|
-0-0-0-0-0-0-0-0-0-0-0-0-0-0-0-0-0-0-0-0-3-|
pm......................................

-------------------------------------------|
-------------------------------------------| X4
-------------------------------------------|
-------------------------------------------|
-2-2-2-2-2-2-2-2-2-2-2-2-2-2-2-2-2-2-2-2-3-|
-0-0-0-0-0-0-0-0-0-0-0-0-0-0-0-0-0-0-0-0-1-|
pm......................................

Ending Riff:

-------------------------------|
-------------------------------|
-------------------------------|
-------------------------------|
-2--2-2-2-2--2-2-2--2-2--2-2-2-|
-0--0-0-0-0--0-0-0--0-0--0-0-0-|
   pm.....   pm...  pm.......
            
Submit corrections

↑ Back to top | Tablatures and chords for acoustic guitar and electric guitar, ukulele, drums are parodies/interpretations of the original songs. You may use it for private study, scholarship, research or language learning purposes only