Home » N » Naxxerian »

Naxxerian - Alone Tabs

Artists:  A B C D E F G H I J K L M N O P Q R S T U V W X Y Z # 

Alone Tabs

(ver. 1) Click to play this song!
Naxxerian
this song is a pretty cool song.. its played in Standard Tuning!!

Intro/Verse/Chorus (Clean):

---------3---------------|
-1---0---3---------------|
-2---2---0---1-----------|
-2---3---0---2-----------|  (Just strum each chord in the style of the song)
-0---3---2---2-----------|
-----0---3---0---0-3p0h3-|
Am   F   G   Em


Heavy Chorus (Second Chorus):

--------------------------|
--------------------------|
--------------------------|
-7---3---5---2---2--------| X4
-7---3---5---2---2--------|
-5---1---3---0---0-3p0h3--|

Breakdown Riff 1:

----------------------------------------|
----------------------------------------|
----------------------------------------|
-7--7-7-7--7-7-7---2--2-2-3--3-3-5--5-5-| X2
-7--7-7-7--7-7-7---2--2-2-3--3-3-5--5-5-|
-5--5-5-5--5-5-5---0--0-0-1--1-1-3--3-3-|
    pm..   pm..       pm..   pm..   pm..
Melody Riff 1: (Dont think solo part is right 100%)

-------------------------------------------------------------------|
-------------10~------------5~---------------8~--------------------|
----------/12-------------/8--------------/10-----------13p10--10~-|
-------------------------------------------------------------13----| X2
-7--7-7-7--------3--3-3-3-------5--5-5-5-------2--2-2-2------------|
-5--5-5-5--------1--1-1-1-------3--3-3-3-------0--0-0-0------------|
    pm..            pm..           pm..           pm..

Background Guitar For Solo Is Same As Heavy Chorus! X4

Melody 2:

------------------------------------------------------------------|
------------------------------------------------------------------|
------------------------------------------------------------------|
-2~--------2------3~-------2------5~-------2------7~-------2------| X4
-2~--2-3-5---5-3--3~-2-3-5---5-3--5~-2-3-5---5-3--7~-2-3-5---5-3--|
-0~---------------1~--------------3~--------------5~--------------|

End!!
            
Submit corrections

↑ Back to top | Tablatures and chords for acoustic guitar and electric guitar, ukulele, drums are parodies/interpretations of the original songs. You may use it for private study, scholarship, research or language learning purposes only