Home » N » Natiruts »

Natiruts - Andei So Tabs

Artists:  A B C D E F G H I J K L M N O P Q R S T U V W X Y Z # 

Andei So Tabs

(ver. 1) Click to play this song!
Natiruts
 Rating:
2.5/5 (28 votes)
                Intro: C#m G#m7 C#m G#m7 F#m7 G#m7 F#m7 G#m7
     ( C#m G#m7 C#m G#m7 F#m7 G#m7 F#m7 B )

1ª parte:

E|---------------------------------------------------|
B|---------------------------------------------------|
G|---------------------------------------------------|
D|------------2----------------2---------------------|
A|------2-4-4-----2------2-4-4-----2-----------------|
E|--4-4---------4---4-4----------4-------------------|


2ª parte:

E|---------------------------------------------------|
B|---------------------------------------------------|
G|---------------------------------------------------|
D|---------------------------------------------------|
A|----4-2-------------------4-2----------------------|
E|--4-----4-3-2-2-2-0-4---4-----4-3-2-2-2-0-4--------|


3ª parte:

E|---------------------------------------------------|
B|---------------------------------------------------|
G|---------------------------------------------------|
D|---------------------------------------------------|
A|----4-2-------------------4-2-----------0-2--------|
E|--4-----4-3-2-2-2-0-4---4-----4-3-2-2-2------------|


C#m                   G#m7
 Preciso demonstrar pra ela
F#m7             B
 Que mereco seu tempo pra dizer
C#m               G#m7
 Um pouco das ideias novas
F#m7          B
 E os lugares onde viajei
C#m               G#m7
 Se ela botar fe na minha historia
   F#m7                     B
 Que e de rocha e vem do coracao
C#m                G#m7
 Vou estender o pano mais bonito
F#m7               B
 Feito na ilha de Madagascar
C#m                     G#m7
 Um Bob, um Djavan, um Jimmy na viola,
 F#m7                       B
 Com humildade de quem sabe onde quer chegar
C#m            G#m7
 Reparei a flor no seu vestido
  F#m7                      B
 So guerreiro de aurea boa pode merecer
C#m           G#m7
 E ela parou, olhou, sorriu,
  F#m7           B          C#m   G#m7
 Me deu um beijo e foi embora
         F#m7                  B
 Nao vi mais a gata mais tenho a minha gaita
      C#m   G#m7  F#m7  B
 Pra me consolar

C#m   G#m7   F#m7       B
An___dei so    pela noite
C#m                 A7M        F#m7   B
 Cantei um Reggae pros cachorros na rua
C#m   G#m7   F#m7       B
An___dei so    pela noite
C#m             A7M             F#m7       B
 Cantei um verso daquele velho samba pra lua
C#m   G#m7   F#m7       B
An___dei so    pela noite

(Intro)
(Repete tudo)
(Intro)            
Submit corrections

↑ Back to top | Tablatures and chords for acoustic guitar and electric guitar, ukulele, drums are parodies/interpretations of the original songs. You may use it for private study, scholarship, research or language learning purposes only