» » »

Nathaniel Rateliff - Winded Tabs

Artists:  A B C D E F G H I J K L M N O P Q R S T U V W X Y Z # 

Winded Tabs

(ver. 1) Click to play this song!
Nathaniel Rateliff
 Rating:
4.3/5 (19 votes)

 Winded  lessons Tabs too difficult? Try these video lessons and learn fast
 
                [Intro]

e|------------------------------0-------|
B|------------3h5p3---------------------|
G|----------5-----------1---------------|
D|--------------------------------------|    x3
A|---3----------------------------------|
E|--------------------------------------|

Following the C, before repeating, do a soft, quick, Up Down Up strum.

e|--------------------------------------|
B|---1-------------------1----1-1-------|UP DOWN UP
G|---2----0h2p0----------0----0-0-------|
D|---3-------------------2----0-0h2-----|    x3
A|---3-------------------3----3-3-------|
E|--------------------------------------|

Quickly transition to the next section following this part. Make it seamless.

e|---x------0---------------------------|
B|---x------0---------------------------|
G|---1---------------------------1--2--4|
D|---2----------------------------------|
A|---2----------------------------------|
E|---0----------------------------------|

[Verse]


Very simple guitar melody when he sings the verses. It's a repeat of 
the first section of the intro without the hammer/pull off part.

I like to play the lower strings of C followed by the higher strings
then the lower strings of E followed by the higher strings. Super simple.


[Chorus]

e|--------------------------------------|
B|---1-------------------1----1-1-------|UP DOWN UP
G|---2----0h2p0----------0----0-0-------|
D|---3-------------------2----0-0h2-----|    x3
A|---3-------------------3----3-3-------|
E|--------------------------------------|

e|---x------0---------------------------|
B|---x------0---------------------------|
G|---1---------------------------1--2--4|
D|---2----------------------------------|
A|---2----------------------------------|
E|---0----------------------------------|            
Submit corrections


        Winded  lessons Hard to play? Try these video lessons and learn fast Winded  lessons
        
↑ Back to top | Tablatures and chords for acoustic guitar and electric guitar, ukulele, drums are parodies/interpretations of the original songs. You may use it for private study, scholarship, research or language learning purposes only