Home » N » Nathaniel Rateliff »

Nathaniel Rateliff - Sob Bass

Artists:  A B C D E F G H I J K L M N O P Q R S T U V W X Y Z # 

Sob Bass

(ver. 1) Click to play this song!
Nathaniel Rateliff
                
Chorus:

G|---------------------------------------------------------------------------|
D|----------------------------1--4-----1--4----------------------------------|
A|------1---4------1--4----2--------2----------------------------------------|
E|---2----------2------------------------------------------------------------|

G|---------------------------------------------------------------------------|
D|--------------------------3--6-----3--6------------------------------------|
A|------1--4-----1--4----4--------4------------------------------------------|
E|---2--------2--------------------------------------------------------------|

G|---------------------------------------------------------------------------|
D|----------------------------1--4-----1--4-------3--6------1--4-------------|
A|------1---4------1--4----2--------2----------4---------2-----------1--4----|
E|---2----------2-------------------------------------------------2--------2-|

END            
Submit corrections

↑ Back to top | Tablatures and chords for acoustic guitar and electric guitar, ukulele, drums are parodies/interpretations of the original songs. You may use it for private study, scholarship, research or language learning purposes only