» » »

Natasha Bedingfield - These Words Tabs

Artists:  A B C D E F G H I J K L M N O P Q R S T U V W X Y Z # 

These Words Tabs

(ver. 1) Click to play this song!
Natasha Bedingfield
 Rating:
4/5 (7 votes)


 These Words lessons Tabs too difficult? Try these video lessons and learn fast
 
                Natasha Bedingfield - These Words

INTRO:
   F       F       Dmin    Dmin Emin F        Dmin    F
|--1-x-x-x-1-x-x-x-5-x-x-x-5----7----8--x-x-x-5-x-x-x-1--1--1--|
|--1-x-x-x-1-x-x-x-6-x-x-x-6----8----10-x-x-x-6-x-x-x-1--1--1--|
|--2-x-x-x-2-x-x-x-7-x-x-x-7----9—---10-x-x-x-7-x-x-x-2--2—-2--|
|--3-x-x-x-3-x-x-x-7-x-x-x-7----9----8--x-x-x-7-x-x-x-3--3—-3--|
|--3-x-x-x-3-x-x-x-5-x-x-x-5----7----8--x-x-x-5-x-x-x-3--3--3--|
|--1-x-x-x-1-x-x-x---x-x-x--------------x-x-x---x-x-x-1--1--1--|

VERSE 1:
   F       F       Dmin    Dmin Emin F        Dmin    F
|--1-x-x-x-1-x-x-x-5-x-x-x-5----7----8--x-x-x-5-x-x-x-1--1--1--|
|--1-x-x-x-1-x-x-x-6-x-x-x-6----8----10-x-x-x-6-x-x-x-1--1--1--|
|--2-x-x-x-2-x-x-x-7-x-x-x-7----9--—-10-x-x-x-7-x-x-x-2--2—-2--| x2
|--3-x-x-x-3-x-x-x-7-x-x-x-7----9----8--x-x-x-7-x-x-x-3--3—-3--|
|--3-x-x-x-3-x-x-x-5-x-x-x-5----7----8--x-x-x-5-x-x-x-3--3--3--|
|--1-x-x-x-1-x-x-x---x-x-x--------------x-x-x---x-x-x-1--1--1--|

PRE-CHORUS:
   Bb      Bb      Dmin    Dmin Emin       Bb      Bb       Dmin C
|--6-x-x-x-6-x-x-x-5-x-x-x-5----7--|    |--6-x-x-x-6-x-x-x-—5----8---|
|--6-x-x-x-6-x-x-x-6-x-x-x-6----8--|    |--6-x-x-x-6-x-x-x-—6----8---|
|--7-x-x-x-7-x-x-x-7-x-x-x-7----9--| x2 |--7-x-x-x-7-x-x-x-—7----9---|
|--8-x-x-x-8-x-x-x-7-x-x-x-7----9--|    |--8-x-x-x-8-x-x-x—-7----10--|
|--8-x-x-x-8-x-x-x-5-x-x-x-5----7--|    |--8-x-x-x-8-x-x-x-—5----10--|
|--6-x-x-x-6-x-x-x---x-x-x---------|    |--6-x-x-x-6-x-x-x-------8---|

CHORUS:
   F  C  Dmin Dmin Emin Bb F  C
|--1--0--5----5----7----6--1--0--|
|--1--1--6----6----8----6--1--1--|
|--2--0--7----7----9----7--2--0--|
|--3--2--7----7----9----8--3--2--|
|--3--3--5----5----7----8--3--3--|
|--1--------------------6--1-----|

I haven't figured it all out yet, but I'm pretty sure what I have for now it right. I'll
make sure to try to finish the song. It's a really good song. learn it. play it. sing it
            
Submit corrections



        These Words lessons Hard to play? Try these video lessons and learn fast These Words lessons
        
↑ Back to top | Tablatures and chords for acoustic guitar and electric guitar, ukulele, drums are parodies/interpretations of the original songs. You may use it for private study, scholarship, research or language learning purposes only