Home » N » Natalia Lafourcade »

Natalia Lafourcade - Tú Sí Sabes Quererme Tabs

Artists:  A B C D E F G H I J K L M N O P Q R S T U V W X Y Z # 

Tú Sí Sabes Quererme Tabs

(ver. 1) Click to play this song!
Natalia Lafourcade
[Intro]
 
e|-----------------------------------------|
B|---------5--7--5------5---5--------------|
G|---6--8-----------8-----6-------8-4-8----|
D|-----------------------------------------|
A|-----------------------------------------|
E|-----------------------------------------|
 
e|-----------------------------------------|
B|---5-----------------5--7--5------5---5--|
G|-----6--------6--8------------8-----6----|
D|---------6-------------------------------|
A|-----------------------------------------|
E|-----------------------------------------|
 
e|---2-----------2/4-4---4------9-11-12-14-|
B|---4--5--4--5--------5-------------------|
G|-----------------------------------------|
D|-----------------------------------------|
A|-----------------------------------------|
E|-----------------------------------------|
 
e|---12--11---12-9-12---11--11---12--------|
B|------------------------12-------14------|
G|-------------------------------------13--|
D|-----------------------------------------|
A|-----------------------------------------|
E|-----------------------------------------|
 
e|---14-12---------------------------------|
B|---------16-14-12---------12-12/14-------|
G|-------------------13--14----------------|
D|-----------------------------------------|
A|-----------------------------------------|
E|-----------------------------------------|
 
e|--------------12-------------------------|
B|---12-14-16--------14-12-14--------------|
G|-----------------------------------------|
D|-----------------------------------------|
A|-----------------------------------------|
E|-----------------------------------------|
 
Ha pasado tanto tiempo
Finalmente descubrí tus besos
Me enredaste en tu mirada
Me abrazaste con todos mis defectos
 
e|-----------------------------------------|
B|------12-------9-------------------------|
G|---11-------8---------9------------------|
D|-------------------11--------------------|
A|-----------------------------------------|
E|-----------------------------------------|
 
----
 
e|-----------------------------------------|
B|---9------------9------------------------|
G|-----9------------9------11--------------|
D|---------11-----------11-----------------|
A|-----------------------------------------|
E|-----------------------------------------|
 
Tú sí sabes quererme, tú sí sabes adorarme mi amor
No te vayas, quédate por siempre para siempre
Para siempre amarte
 
 
Corazón, tú sí sabes quererme como a mí me gusta
e|------11--12--11-------------------------|
B|---9--------------12--14-----------------|
G|-----------------------------------------|
D|-----------------------------------------|
A|-----------------------------------------|
E|-----------------------------------------|
Soy la flor encendida que da color al jardín de tu vida
Corazón, tú sí sabes quererme como a mí me gusta
Por favor no me dejes que soy valiente en corresponderte
 
 
[solo]
 
e|-----------------------------------------|
B|----------5--7---9--10--7----------14-12-|
G|---6--8---------------------14-12--------|
D|-----------------------------------------|
A|-----------------------------------------|
E|-----------------------------------------|
 
e|-----------------------------------------|
B|---16-14---16-12-------------------------|
G|------------------13-11-----13-11--------|
D|------------------------14--------14-----|
A|-----------------------------------------|
E|-----------------------------------------|
 
e|-----------------------------------------|
B|-----------------------------------------|
G|-------------13----11-13-14---16---14-13-|
D|---13--11--------------------------------|
A|-----------------------------------------|
E|-----------------------------------------|
 
e|-------------------12--14--12------------|
B|-------------------------------14--------|
G|-----------13--15------------------------|
D|---11--13--------------------------------|
A|-----------------------------------------|
E|-----------------------------------------|
 
e|---11----11----11------------------------|
B|------12-----------14--------------------|
G|-----------------------13---13--11--9----|
D|-----------------------------------------|
A|-----------------------------------------|
E|-----------------------------------------|
 
e|------------------------------11---------|
B|--------------10--12--12/14------12--12--|
G|-----------------------------------------|
D|---13--11--9-----------------------------|
A|-----------------------------------------|
E|-----------------------------------------|
 
e|---11------------------------------------|
B|-------14--------------------------------|
G|-----------------------------------------|
D|-----------------------------------------|
A|-----------------------------------------|
E|-----------------------------------------|
 
 
e|-----------------------------------------|
B|-----------------------------------------|
G|--------6----6--4-----------------6------|
D|------6------------7--6---------6--------|
A|---4---------------------7---4-----------|
E|-----------------------------------------|
 
e|-----------------------------------------|
B|-----------------------------------------|
G|--------6-----6--4-----------------6-----|
D|------6-------------7--6---------6-------|
A|---4----------------------7---4----------|
E|-----------------------------------------|
 
Ha pasado tanto tiempo
Finalmente sé que estoy dispuesta
Es tan difícil encontrar un amor
Que aquí me quedo con heridas bien abiertas
e|---4--4-----0--2-------------------------|
B|---5--5-----2--2-------------------------|
G|-----------------------------------------|
D|-----------------------------------------|
A|-----------------------------------------|
E|-----------------------------------------|
 
Ya no me importa lo que piensan los demás
Aquí me quedo para ser testigo siempre de la vida
e|-----------------------------------------|
B|---5-------------------------------------|
G|------8---6-----6------------------------|
D|-------------6-----7---------------------|
A|-----------------------------------------|
E|-----------------------------------------|
Aquí por siempre, para siempre
Para siempre amarlos
 
 
Corazón, tú sí sabes quererme como a mí me gusta
e|---12--11--------9-----------------------|
B|------------12---------------------------|
G|-----------------------------------------|
D|-----------------------------------------|
A|-----------------------------------------|
E|-----------------------------------------|
 
  Soy la flor encendida que da color al jardín de tu vida
e|---0--2--4-------------------------------|
B|---2--4--5-------------------------------|
G|-----------------------------------------|
D|-----------------------------------------|
A|-----------------------------------------|
E|-----------------------------------------|
 
  Corazón, tú sí sabes quererme como a mí me gusta
e|---14p12---------------------------------|
B|-----------16--12--14--------------------|
G|-----------------------------------------|
D|-----------------------------------------|
A|-----------------------------------------|
E|-----------------------------------------|
 
  Por favor no me dejes que soy valiente en corresponderte
e|-----------------------------------------|
B|---7h9-----------------------------------|
G|--------9--8--6----8-9-------------------|
D|-----------------------------------------|
A|-----------------------------------------|
E|-----------------------------------------|
 
 
Corazón, tú sí sabes quererme como a mí me gusta
Soy la flor encendida que da color al jardín de tu vida
e|-----------------------------------------|
B|---7-9----9---7-9----9-------------------|
G|--------8----------8---------------------|
D|-----------------------------------------|
A|-----------------------------------------|
E|-----------------------------------------|
 
  Corazón, tú sí sabes quererme como a mí me gusta
e|-----------------------------------------|
B|------12------9--------------------------|
G|---11-------8-------9--------------------|
D|-----------------11----------------------|
A|-----------------------------------------|
E|-----------------------------------------|
Por favor no me dejes que soy valiente en corresponderte
 
 
 
 
e|-----------------------------------------|
B|---------5--7--5------5---5--------------|
G|---6--8-----------8-----6-------8-4-8----|
D|-----------------------------------------|
A|-----------------------------------------|
E|-----------------------------------------|
 
e|-----------------------------------------|
B|---5-----------------5--7--5------5---5--|
G|-----6--------6--8------------8-----6----|
D|---------6-------------------------------|
A|-----------------------------------------|
E|-----------------------------------------|
 
e|---2-----------2/4-4---4------9-11-12-14-|
B|---4--5--4--5--------5-------------------|
G|-----------------------------------------|
D|-----------------------------------------|
A|-----------------------------------------|
E|-----------------------------------------|
 
e|---12--11---12-9-12---11--11---12--------|
B|------------------------12-------14------|
G|-------------------------------------13--|
D|-----------------------------------------|
A|-----------------------------------------|
E|-----------------------------------------|
 
e|---14-12---------------------------------|
B|---------16-14-12---------12-12/14-------|
G|-------------------13--14----------------|
D|-----------------------------------------|
A|-----------------------------------------|
E|-----------------------------------------|
 
e|--------------12-------------------------|
B|---12-14-16--------14-12-14--------------|
G|-----------------------------------------|
D|-----------------------------------------|
A|-----------------------------------------|
E|-----------------------------------------|
 
 
 
Corazón, corazón, tú sí sabes (Quererme como a mí me gusta)
Corazón, tú sí sabes quererme, mi amor (Quererme como a mí me gusta)
e|-----------------------------------------|
B|----------9-------10---------9-----------|
G|---9--11------11----------9--------------|
D|-----------------------------------------|
A|-----------------------------------------|
E|-----------------------------------------|
Ay no te vayas, quédate por siempre (Quererme como a mí me gusta)
Que soy valiente en corresponderte mi amor (Quererme como a mí me gusta)
            
Submit corrections

↑ Back to top | Tablatures and chords for acoustic guitar and electric guitar, ukulele, drums are parodies/interpretations of the original songs. You may use it for private study, scholarship, research or language learning purposes only