Home » N » Natalia Lafourcade »

Natalia Lafourcade - Te Quiero Dar Tabs

Artists:  A B C D E F G H I J K L M N O P Q R S T U V W X Y Z # 

Te Quiero Dar Tabs

(ver. 1) Click to play this song!
Natalia Lafourcade
Te quiero dar


Natalia Lafourcade






:--------------------------------------------------------------------------------|
:--------------------------------------------------------------------------------|
:---7--7---2-2-2---5-----7--7---2-2-2---5-----------------------2--2--2--2-2-2-2-|
:---7--7---2-2-2---5-----7--7---2-2-2---5-----5--5--5-5-5-5--5--2--2--2--2-2-2-2-|
:---5--5---0-0-0---3--0--5--5---0-0-0---3--0--5--5--5-5-5-5--5--0--0--0--0-0-0-0-|
:---------------------------------------------3--3--3-3-3-3--3-------------------|



Quiero encontrar el secreto
e:-5--5---5-5-5-5-5-5-5-5---3--3--3-3-3-3-3---3--3--3--3-3-3-3-3-3-3--3-|
B:-6--6---6-6-6-6-6-6-6-6---3--3--3-3-3-3-3---2--2--2--2-2-2-2-2-2-2--2-|
G:-5--5---5-5-5-5-5-5-5-5---3--3--3-3-3-3-3---2--2--2--2-2-2-2-2-2-2--2-|
D:-7--7---7-7-7-7-7-7-7-7---3--3--3-3-3-3-3---2--2--2--2-2-2-2-2-2-2--2-|
A:-5--5---5-5-5-5-5-5-5-5---5--5--5-5-5-5-5---0--0--0--0-0-0-0-0-0-0--0-|
E:--------------------------3--3--3-3-3-3-3-----------------------------|
Para encontrarme tus sueños
e:-5--5---5-5-5-5-5-5-5-5---3--3--3-3-3-3-3---3--3--3--3-3-3-3-3-3-3--3-|
B:-6--6---6-6-6-6-6-6-6-6---3--3--3-3-3-3-3---2--2--2--2-2-2-2-2-2-2--2-|
G:-5--5---5-5-5-5-5-5-5-5---3--3--3-3-3-3-3---2--2--2--2-2-2-2-2-2-2--2-|
D:-7--7---7-7-7-7-7-7-7-7---3--3--3-3-3-3-3---2--2--2--2-2-2-2-2-2-2--2-|
A:-5--5---5-5-5-5-5-5-5-5---5--5--5-5-5-5-5---0--0--0--0-0-0-0-0-0-0--0-|
E:--------------------------3--3--3-3-3-3-3-----------------------------|
Tengo un poco de miedo
e:-5--5---5-5-5-5-5-5-5-5---3--3--3-3-3-3-3---3--3--3--3-3-3-3-3-3-3--3-|
B:-6--6---6-6-6-6-6-6-6-6---3--3--3-3-3-3-3---2--2--2--2-2-2-2-2-2-2--2-|
G:-5--5---5-5-5-5-5-5-5-5---3--3--3-3-3-3-3---2--2--2--2-2-2-2-2-2-2--2-|
D:-7--7---7-7-7-7-7-7-7-7---3--3--3-3-3-3-3---2--2--2--2-2-2-2-2-2-2--2-|
A:-5--5---5-5-5-5-5-5-5-5---5--5--5-5-5-5-5---0--0--0--0-0-0-0-0-0-0--0-|
E:--------------------------3--3--3-3-3-3-3-----------------------------|
Pueden hacer, que me quede ahí
e:-5--5---5-5-5-5-5-5-5-5---3--3--3-3-3-3-3---3--3--3--3-3-3-3-3-3-3--3-|
B:-6--6---6-6-6-6-6-6-6-6---3--3--3-3-3-3-3---2--2--2--2-2-2-2-2-2-2--2-|
G:-5--5---5-5-5-5-5-5-5-5---3--3--3-3-3-3-3---2--2--2--2-2-2-2-2-2-2--2-|
D:-7--7---7-7-7-7-7-7-7-7---3--3--3-3-3-3-3---2--2--2--2-2-2-2-2-2-2--2-|
A:-5--5---5-5-5-5-5-5-5-5---5--5--5-5-5-5-5---0--0--0--0-0-0-0-0-0-0--0-|
E:--------------------------3--3--3-3-3-3-3-----------------------------|


Tengo arroz, sentimientos
e:-5--5---5-5-5-5-5-5-5-5---3--3--3-3-3-3-3---3--3--3--3-3-3-3-3-3-3--3-|
B:-6--6---6-6-6-6-6-6-6-6---3--3--3-3-3-3-3---2--2--2--2-2-2-2-2-2-2--2-|
G:-5--5---5-5-5-5-5-5-5-5---3--3--3-3-3-3-3---2--2--2--2-2-2-2-2-2-2--2-|
D:-7--7---7-7-7-7-7-7-7-7---3--3--3-3-3-3-3---2--2--2--2-2-2-2-2-2-2--2-|
A:-5--5---5-5-5-5-5-5-5-5---5--5--5-5-5-5-5---0--0--0--0-0-0-0-0-0-0--0-|
E:--------------------------3--3--3-3-3-3-3-----------------------------|
Que puedo yo cocinarte a ti
e:-5--5---5-5-5-5-5-5-5-5---3--3--3-3-3-3-3---3--3--3--3-3-3-3-3-3-3--3-|
B:-6--6---6-6-6-6-6-6-6-6---3--3--3-3-3-3-3---2--2--2--2-2-2-2-2-2-2--2-|
G:-5--5---5-5-5-5-5-5-5-5---3--3--3-3-3-3-3---2--2--2--2-2-2-2-2-2-2--2-|
D:-7--7---7-7-7-7-7-7-7-7---3--3--3-3-3-3-3---2--2--2--2-2-2-2-2-2-2--2-|
A:-5--5---5-5-5-5-5-5-5-5---5--5--5-5-5-5-5---0--0--0--0-0-0-0-0-0-0--0-|
E:--------------------------3--3--3-3-3-3-3-----------------------------|
Tengo sazón, pensamientos
e:-5--5---5-5-5-5-5-5-5-5---3--3--3-3-3-3-3---3--3--3--3-3-3-3-3-3-3--3-|
B:-6--6---6-6-6-6-6-6-6-6---3--3--3-3-3-3-3---2--2--2--2-2-2-2-2-2-2--2-|
G:-5--5---5-5-5-5-5-5-5-5---3--3--3-3-3-3-3---2--2--2--2-2-2-2-2-2-2--2-|
D:-7--7---7-7-7-7-7-7-7-7---3--3--3-3-3-3-3---2--2--2--2-2-2-2-2-2-2--2-|
A:-5--5---5-5-5-5-5-5-5-5---5--5--5-5-5-5-5---0--0--0--0-0-0-0-0-0-0--0-|
E:--------------------------3--3--3-3-3-3-3-----------------------------|
Que puedo ya, regalarte a ti
e:-5--5---5-5-5-5-5-5-5-5---3--3--3-3-3-3-3---3--3--3--3-3-3-3-3-3-3--3-|
B:-6--6---6-6-6-6-6-6-6-6---3--3--3-3-3-3-3---2--2--2--2-2-2-2-2-2-2--2-|
G:-5--5---5-5-5-5-5-5-5-5---3--3--3-3-3-3-3---2--2--2--2-2-2-2-2-2-2--2-|
D:-7--7---7-7-7-7-7-7-7-7---3--3--3-3-3-3-3---2--2--2--2-2-2-2-2-2-2--2-|
A:-5--5---5-5-5-5-5-5-5-5---5--5--5-5-5-5-5---0--0--0--0-0-0-0-0-0-0--0-|
E:--------------------------3--3--3-3-3-3-3-----------------------------|


Te quiero dar, quiero jugar
:--------------------------------------------------------------------------------|
:--------------------------------------------------------------------------------|
:---7--7---2-2-2---5-----7--7---2-2-2---5-----------------------2--2--2--2-2-2-2-|
:---7--7---2-2-2---5-----7--7---2-2-2---5-----5--5--5-5-5-5--5--2--2--2--2-2-2-2-|
:---5--5---0-0-0---3--0--5--5---0-0-0---3--0--5--5--5-5-5-5--5--0--0--0--0-0-0-0-|
:---------------------------------------------3--3--3-3-3-3--3-------------------|
A enamorarme, una vez mas
:--------------------------------------------------------------------------------|
:--------------------------------------------------------------------------------|
:---7--7---2-2-2---5-----7--7---2-2-2---5-----------------------2--2--2--2-2-2-2-|
:---7--7---2-2-2---5-----7--7---2-2-2---5-----5--5--5-5-5-5--5--2--2--2--2-2-2-2-|
:---5--5---0-0-0---3--0--5--5---0-0-0---3--0--5--5--5-5-5-5--5--0--0--0--0-0-0-0-|
:---------------------------------------------3--3--3-3-3-3--3-------------------|
Quiero soñar, imaginarme
:--------------------------------------------------------------------------------|
:--------------------------------------------------------------------------------|
:---7--7---2-2-2---5-----7--7---2-2-2---5-----------------------2--2--2--2-2-2-2-|
:---7--7---2-2-2---5-----7--7---2-2-2---5-----5--5--5-5-5-5--5--2--2--2--2-2-2-2-|
:---5--5---0-0-0---3--0--5--5---0-0-0---3--0--5--5--5-5-5-5--5--0--0--0--0-0-0-0-|
:---------------------------------------------3--3--3-3-3-3--3-------------------|
Y que al final, no quedes mal
:--------------------------------------------------------------------------------|
:--------------------------------------------------------------------------------|
:---7--7---2-2-2---5-----7--7---2-2-2---5-----------------------2--2--2--2-2-2-2-|
:---7--7---2-2-2---5-----7--7---2-2-2---5-----5--5--5-5-5-5--5--2--2--2--2-2-2-2-|
:---5--5---0-0-0---3--0--5--5---0-0-0---3--0--5--5--5-5-5-5--5--0--0--0--0-0-0-0-|
:---------------------------------------------3--3--3-3-3-3--3-------------------|

an*lizar            los momentos,   en que  te callas
e:---------------------3--3-3-3-3--3--3-3-3-3---5--5-5-5-5-5-5-5-|
B:---------------------3--3-3-3-3--2--2-2-2-2---6--6-6-6-6-6-6-6-|
G:---------------------3--3-3-3-3--2--2-2-2-2---5--5-5-5-5-5-5-5-|
D:-7--7--7-7-7-7-7-7---3--3-3-3-3--2--2-2-2-2---7--7-7-7-7-7-7-7-|
A:-7--7--7-7-7-7-7-7---5--5-5-5-5--0--0-0-0-0---5--5-5-5-5-5-5-5-|
E:-5--5--5-5-5-5-5-5---3--3-3-3-3--------------------------------|


quieres    mirar,       interpretar          movimientos
e:-3-3-3-3--3--3-3-3-3--5--5-5-5-5-5-5-5-5---3-3-3-3--3-3-3-3-|
B:-3-3-3-3--2--2-2-2-2--6--6-6-6-6-6-6-6-6---3-3-3-3--2-2-2-2-|
G:-3-3-3-3--2--2-2-2-2--5--5-5-5-5-5-5-5-5---3-3-3-3--2-2-2-2-|
D:-3-3-3-3--2--2-2-2-2--7--7-7-7-7-7-7-7-7---5-5-5-5--2-2-2-2-|
A:-5-5-5-5--0--0-0-0-0--5--5-5-5-5-5-5-5-5---5-5-5-5--0-0-0-0-|
E:-3-3-3-3-----------------------------------3-3-3-3----------|


   Sé que tu cuerpo      me puede hablar
e:-5-5-5-5-5-5-5-5-5-5-5--3-3-3-3--3-3-3-3-3--|
B:-6-6-6-6-6-6-6-6-6-6-6--3-3-3-3--2-2-2-2-2--|
G:-5-5-5-5-5-5-5-5-5-5-5--3-3-3-3--2-2-2-2-2--|
D:-7-7-7-7-7-7-7-7-7-7-7--3-3-3-3--2-2-2-2-2--|
A:-5-5-5-5-5-5-5-5-5-5-5--5-5-5-5--0-0-0-0-0--|
E:------------------------3-3-3-3-------------|


e:------------------------------|
B:------------------------------|
G:------------------------------|
D:-----------3----------------5-|
A:--5-5--3h5---3-5--5-5--3h5----|
E:------------------------------|

Tengo canciones, secretos
e:-5--5---5-5-5-5-5-5-5-5---3--3--3-3-3-3-3---3--3--3--3-3-3-3-3-3-3--3-|
B:-6--6---6-6-6-6-6-6-6-6---3--3--3-3-3-3-3---2--2--2--2-2-2-2-2-2-2--2-|
G:-5--5---5-5-5-5-5-5-5-5---3--3--3-3-3-3-3---2--2--2--2-2-2-2-2-2-2--2-|
D:-7--7---7-7-7-7-7-7-7-7---3--3--3-3-3-3-3---2--2--2--2-2-2-2-2-2-2--2-|
A:-5--5---5-5-5-5-5-5-5-5---5--5--5-5-5-5-5---0--0--0--0-0-0-0-0-0-0--0-|
E:--------------------------3--3--3-3-3-3-3-----------------------------|

Muchos colores, te puedo dar
e:-5--5---5-5-5-5-5-5-5-5---3--3--3-3-3-3-3---3--3--3--3-3-3-3-3-3-3--3-|
B:-6--6---6-6-6-6-6-6-6-6---3--3--3-3-3-3-3---2--2--2--2-2-2-2-2-2-2--2-|
G:-5--5---5-5-5-5-5-5-5-5---3--3--3-3-3-3-3---2--2--2--2-2-2-2-2-2-2--2-|
D:-7--7---7-7-7-7-7-7-7-7---3--3--3-3-3-3-3---2--2--2--2-2-2-2-2-2-2--2-|
A:-5--5---5-5-5-5-5-5-5-5---5--5--5-5-5-5-5---0--0--0--0-0-0-0-0-0-0--0-|
E:--------------------------3--3--3-3-3-3-3-----------------------------|

Un poco      de mis                       recuerdos
e:-5--5---5-5-5-5-5-5-5-5---3--3--3-3-3-3-3---3--3--3--3-3-3-3-3-3-3--3-|
B:-6--6---6-6-6-6-6-6-6-6---3--3--3-3-3-3-3---2--2--2--2-2-2-2-2-2-2--2-|
G:-5--5---5-5-5-5-5-5-5-5---3--3--3-3-3-3-3---2--2--2--2-2-2-2-2-2-2--2-|
D:-7--7---7-7-7-7-7-7-7-7---3--3--3-3-3-3-3---2--2--2--2-2-2-2-2-2-2--2-|
A:-5--5---5-5-5-5-5-5-5-5---5--5--5-5-5-5-5---0--0--0--0-0-0-0-0-0-0--0-|
E:--------------------------3--3--3-3-3-3-3-----------------------------|

Que cada noche yo te puedo contar a ti
e:-5--5---5-5-5-5-5-5-5-5---3--3--3-3-3-3-3---3--3--3--3-3-3-3-3-3-3--3-|
B:-6--6---6-6-6-6-6-6-6-6---3--3--3-3-3-3-3---2--2--2--2-2-2-2-2-2-2--2-|
G:-5--5---5-5-5-5-5-5-5-5---3--3--3-3-3-3-3---2--2--2--2-2-2-2-2-2-2--2-|
D:-7--7---7-7-7-7-7-7-7-7---3--3--3-3-3-3-3---2--2--2--2-2-2-2-2-2-2--2-|
A:-5--5---5-5-5-5-5-5-5-5---5--5--5-5-5-5-5---0--0--0--0-0-0-0-0-0-0--0-|
E:--------------------------3--3--3-3-3-3-3-----------------------------|

solo
                                                                        --
e:---------------------------------------------------------------------/------------------|
B:-----------------------8B--8-8----13---------------15B--15~---------/-------------10----|
G:-10p7--7-7--7---7-10-7---------------12------------------------12Bf/--12p10-10----10----|
D:-----------------------------------------15--12-15-----------------------------12----12-|
A:----------------------------------------------------------------------------------------|
E:----------------------------------------------------------------------------------------|

e:-------------------------------------------------------|
B:-10-----------------------------------13p10------------|
G:-10------------12B--12Bp10----10~~~~--------10---------|
D:----12-12~~~~--------------12------------------12~~~---|
A:-------------------------------------------------------|
E:-------------------------------------------------------|

Te quiero dar, quiero jugar
GT1
:--------------------------------------------------------------------------------|
:--------------------------------------------------------------------------------|
:---7--7---2-2-2---5-----7--7---2-2-2---5-----------------------2--2--2--2-2-2-2-|
:---7--7---2-2-2---5-----7--7---2-2-2---5-----5--5--5-5-5-5--5--2--2--2--2-2-2-2-|
:---5--5---0-0-0---3--0--5--5---0-0-0---3--0--5--5--5-5-5-5--5--0--0--0--0-0-0-0-|
:---------------------------------------------3--3--3-3-3-3--3-------------------|
GT2
e:--------------------------------------------|
B:--------------------------------------------|
G:-10p7--7-7--7---7-10-7-----7-7--7---7-10-7--|
D:--------------------------------------------|
A:--------------------------------------------|
E:--------------------------------------------|

A enamorarme, una vez mas
:--------------------------------------------------------------------------------|
:--------------------------------------------------------------------------------|
:---7--7---2-2-2---5-----7--7---2-2-2---5-----------------------2--2--2--2-2-2-2-|
:---7--7---2-2-2---5-----7--7---2-2-2---5-----5--5--5-5-5-5--5--2--2--2--2-2-2-2-|
:---5--5---0-0-0---3--0--5--5---0-0-0---3--0--5--5--5-5-5-5--5--0--0--0--0-0-0-0-|
:---------------------------------------------3--3--3-3-3-3--3-------------------|
GT2
e:------------------------------------------------------------------------|
B:------------------------9-8------------------9-8------------15-15-15~~~-|
G:-10p7--7-7--7---7-10-7-------10--7-7--7-10-7------10-7-7-7/-------------|
D:------------------------------------------------------------------------|
A:------------------------------------------------------------------------|
E:------------------------------------------------------------------------|


Quiero soñar, imaginarme
:--------------------------------------------------------------------------------|
:--------------------------------------------------------------------------------|
:---7--7---2-2-2---5-----7--7---2-2-2---5-----------------------2--2--2--2-2-2-2-|
:---7--7---2-2-2---5-----7--7---2-2-2---5-----5--5--5-5-5-5--5--2--2--2--2-2-2-2-|
:---5--5---0-0-0---3--0--5--5---0-0-0---3--0--5--5--5-5-5-5--5--0--0--0--0-0-0-0-|
:---------------------------------------------3--3--3-3-3-3--3-------------------|
GT2
e:----------------------------------------------------------|
B:-----------------15-15-15~~~----15B~~---------------------|
G:----------------------------------------------------------|
D:-----------------------------------------17B-15-----------|
A:-------------------------------------------------17~~~----|
E:----------------------------------------------------------|

Y que al final, no pienses mal
:--------------------------------------------------------------------------------|
:--------------------------------------------------------------------------------|
:---7--7---2-2-2---5-----7--7---2-2-2---5-----------------------2--2--2--2-2-2-2-|
:---7--7---2-2-2---5-----7--7---2-2-2---5-----5--5--5-5-5-5--5--2--2--2--2-2-2-2-|
:---5--5---0-0-0---3--0--5--5---0-0-0---3--0--5--5--5-5-5-5--5--0--0--0--0-0-0-0-|
:---------------------------------------------3--3--3-3-3-3--3-------------------|
GT2
e:---------------------------------------------------------------------------|
B:-----------------------8B--8-8------------------------8B-8-----------------|
G:-10p7--7-7--7---7-10-7---------10--7-7-7~~~---7-10--7------10-7------------|
D:---------------------------------------------------------------------------|
A:---------------------------------------------------------------------------|
E:---------------------------------------------------------------------------|


Quiero soñar, quiero jugar
:--------------------------------------------------------------------------------|
:--------------------------------------------------------------------------------|
:---7--7---2-2-2---5-----7--7---2-2-2---5-----------------------2--2--2--2-2-2-2-|
:---7--7---2-2-2---5-----7--7---2-2-2---5-----5--5--5-5-5-5--5--2--2--2--2-2-2-2-|
:---5--5---0-0-0---3--0--5--5---0-0-0---3--0--5--5--5-5-5-5--5--0--0--0--0-0-0-0-|
:---------------------------------------------3--3--3-3-3-3--3-------------------|
GT2
e:--------------------------------------------|
B:--------------------------------------------|
G:-10p7--7-7--7---7-10-7-----7-7--7---7-10-7--|
D:--------------------------------------------|
A:--------------------------------------------|
E:--------------------------------------------|


A enamorarme una vez mas
:--------------------------------------------------------------------------------|
:--------------------------------------------------------------------------------|
:---7--7---2-2-2---5-----7--7---2-2-2---5-----------------------2--2--2--2-2-2-2-|
:---7--7---2-2-2---5-----7--7---2-2-2---5-----5--5--5-5-5-5--5--2--2--2--2-2-2-2-|
:---5--5---0-0-0---3--0--5--5---0-0-0---3--0--5--5--5-5-5-5--5--0--0--0--0-0-0-0-|
:---------------------------------------------3--3--3-3-3-3--3-------------------|
GT2
e:------------------------------------------------------------------------|
B:------------------------9-8------------------9-8------------15-15-15~~~-|
G:-10p7--7-7--7---7-10-7-------10--7-7--7-10-7------10-7-7-7/-------------|
D:------------------------------------------------------------------------|
A:------------------------------------------------------------------------|
E:------------------------------------------------------------------------|


Quiero soñar imaginarme
:--------------------------------------------------------------------------------|
:--------------------------------------------------------------------------------|
:---7--7---2-2-2---5-----7--7---2-2-2---5-----------------------2--2--2--2-2-2-2-|
:---7--7---2-2-2---5-----7--7---2-2-2---5-----5--5--5-5-5-5--5--2--2--2--2-2-2-2-|
:---5--5---0-0-0---3--0--5--5---0-0-0---3--0--5--5--5-5-5-5--5--0--0--0--0-0-0-0-|
:---------------------------------------------3--3--3-3-3-3--3-------------------|
GT2
e:---------------------------------------------------------------------------|
B:-----------------------8B--8-8------------------------8B-8-----------------|
G:-10p7--7-7--7---7-10-7---------10--7-7-7~~~---7-10--7------10-7------------|
D:---------------------------------------------------------------------------|
A:---------------------------------------------------------------------------|
E:---------------------------------------------------------------------------|

Y que al final no me quedes mal
:--------------------------------------------------------------------------------|
:--------------------------------------------------------------------------------|
:---7--7---2-2-2---5-----7--7---2-2-2---5-----------------------2--2--2--2-2-2-2-|
:---7--7---2-2-2---5-----7--7---2-2-2---5-----5--5--5-5-5-5--5--2--2--2--2-2-2-2-|
:---5--5---0-0-0---3--0--5--5---0-0-0---3--0--5--5--5-5-5-5--5--0--0--0--0-0-0-0-|
:---------------------------------------------3--3--3-3-3-3--3-------------------|
GT2
e:------------------------------------------------------------------------|
B:------------------------9-8------------------9-8------------15-15-15~~~-|
G:-10p7--7-7--7---7-10-7-------10--7-7--7-10-7------10-7-7-7/-------------|
D:------------------------------------------------------------------------|
A:------------------------------------------------------------------------|
E:------------------------------------------------------------------------|


Quiero soñar imaginarme
:--------------------------------------------------------------------------------|
:---6--6---2-2-2---------6--6---2-2-2---------------------------2--2--2--2-2-2-2-|
:---7--7---2-2-2---5-----7--7---2-2-2---5-----4--4--4-4-4-4-----2--2--2--2-2-2-2-|
:---7--7---2-2-2---5-----7--7---2-2-2---5-----5--5--5-5-5-5--5--2--2--2--2-2-2-2-|
:---5--5---0-0-0---3--0--5--5---0-0-0---3--0--5--5--5-5-5-5--5--0--0--0--0-0-0-0-|
:---------------------------------------------3--3--3-3-3-3--3-------------------|

Quiero soñar imaginar
:--------------------------------------------------------------------------------|
:---6--6---2-2-2---------6--6---2-2-2---------------------------2--2--2--2-2-2-2-|
:---7--7---2-2-2---5-----7--7---2-2-2---5-----4--4--4-4-4-4-----2--2--2--2-2-2-2-|
:---7--7---2-2-2---5-----7--7---2-2-2---5-----5--5--5-5-5-5--5--2--2--2--2-2-2-2-|
:---5--5---0-0-0---3--0--5--5---0-0-0---3--0--5--5--5-5-5-5--5--0--0--0--0-0-0-0-|
:---------------------------------------------3--3--3-3-3-3--3-------------------|

Quiero soñar imaginar
:--------------------------------------------------------------------------------|
:---6--6---2-2-2---------6--6---2-2-2---------------------------2--2--2--2-2-2-2-|
:---7--7---2-2-2---5-----7--7---2-2-2---5-----4--4--4-4-4-4-----2--2--2--2-2-2-2-|
:---7--7---2-2-2---5-----7--7---2-2-2---5-----5--5--5-5-5-5--5--2--2--2--2-2-2-2-|
:---5--5---0-0-0---3--0--5--5---0-0-0---3--0--5--5--5-5-5-5--5--0--0--0--0-0-0-0-|
:---------------------------------------------3--3--3-3-3-3--3-------------------|

Quiero soñar imaginarme y no kede mas
:--------------------------------------------------------------------------------|
:---6--6---2-2-2---------6--6---2-2-2---------------------------2--2--2--2-2-2-2-|
:---7--7---2-2-2---5-----7--7---2-2-2---5-----4--4--4-4-4-4-----2--2--2--2-2-2-2-|
:---7--7---2-2-2---5-----7--7---2-2-2---5-----5--5--5-5-5-5--5--2--2--2--2-2-2-2-|
:---5--5---0-0-0---3--0--5--5---0-0-0---3--0--5--5--5-5-5-5--5--0--0--0--0-0-0-0-|
:---------------------------------------------3--3--3-3-3-3--3-------------------|

ya akavamos!
se fini
...ya te vas a tu kasa?
si
me voy a mi kasa
a doorrmiiiirrrr
            
Submit corrections

↑ Back to top | Tablatures and chords for acoustic guitar and electric guitar, ukulele, drums are parodies/interpretations of the original songs. You may use it for private study, scholarship, research or language learning purposes only