Home » N » Natalia Lafourcade »

Natalia Lafourcade - En El 2000 Tabs

Artists:  A B C D E F G H I J K L M N O P Q R S T U V W X Y Z # 

En El 2000 Tabs

(ver. 1) Click to play this song!
Natalia Lafourcade
en el 2000


Natalia Lafourcade







e:-3-3-3-3-3-3--3-3-3-3-3-3--3-3-3-3-3-3-------|
B:-3-3-3-3-3-3--3-3-3-3-3-3--3-3-3-3-3-3-------|
G:-0-0-0-0-0-0--0-0-0-0-0-0--2-2-2-2-2-2--0--0-|
D:-0-0-0-0-0-0--2-2-2-2-2-2--2-2-2-2-2-2--0--0-|
A:-2-2-2-2-2-2--3-3-3-3-3-3--0-0-0-0------2--2-|
E:-3---3-3---3----------------------------3--3-|


e:-3-3-3-3-3-3--3-3-3-3-3-3--3-3-3-3-3-3-------|
B:-3-3-3-3-3-3--3-3-3-3-3-3--3-3-3-3-3-3-------|
G:-0-0-0-0-0-0--0-0-0-0-0-0--2-2-2-2-2-2--0--0-|
D:-0-0-0-0-0-0--2-2-2-2-2-2--2-2-2-2-2-2--0--0-|
A:-2-2-2-2-2-2--3-3-3-3-3-3--0-0-0-0------2--2-|
E:-3---3-3---3----------------------------3--3-|

  En el 2000 Busco hombres de Paris Un cerebro inteligente Que no se emborrache en viernes
e:-3-3-3-3-3-3--3-3-3-3-3-3---------3-3-3-3-3-3------------------|
B:-3-3-3-3-3-3--3-3-3-3-3-3---------3-3-3-3-3-3------------------|
G:-0-0-0-0-0-0--0-0-0-0-0-0---------2-2-2-2-2-2-------------0--0-|
D:-0-0-0-0-0-0--2-2-2-2-2-2---------2-2-2-2-2-2-------------0--0-|
A:-2-2-2-2-2-2--3-3-3-3-3-3---------0-0-0-0-----------------2--2-|
E:-3---3-3---3----------------------------------------------3--3-|

  Y un tonto loco Que sea baboso  No un instinto animal Que el sexo vuelva loco
e:-3-3-3-3-3-3--3-3-3-3-3-3---------3-3-3-3-3-3------------------|
B:-3-3-3-3-3-3--3-3-3-3-3-3---------3-3-3-3-3-3------------------|
G:-0-0-0-0-0-0--0-0-0-0-0-0---------2-2-2-2-2-2-------------0--0-|
D:-0-0-0-0-0-0--2-2-2-2-2-2---------2-2-2-2-2-2-------------0--0-|
A:-2-2-2-2-2-2--3-3-3-3-3-3---------0-0-0-0-----------------2--2-|
E:-3---3-3---3----------------------------------------------3--3-|

  En el 2000 Las mujeres visten gris Los tirantes transparentes Mas abierto y la mente
e:-3-3-3-3-3-3--3-3-3-3-3-3----------3-3-3-3-3-3-----------------------|
B:-3-3-3-3-3-3--3-3-3-3-3-3----------3-3-3-3-3-3-----------------------|
G:-0-0-0-0-0-0--0-0-0-0-0-0----------2-2-2-2-2-2------------------0--0-|
D:-0-0-0-0-0-0--2-2-2-2-2-2----------2-2-2-2-2-2------------------0--0-|
A:-2-2-2-2-2-2--3-3-3-3-3-3----------0-0-0-0----------------------2--2-|
E:-3---3-3---3----------------------------------------------------3--3-|

Nos vuelve locas Un poco zonzas Si ven a Ricky Martín en revistas Lo recortan
e:-3-3-3-3-3-3--3-3-3-3-3-3----------3-3-3-3-3-3-----------------------|
B:-3-3-3-3-3-3--3-3-3-3-3-3----------3-3-3-3-3-3-----------------------|
G:-0-0-0-0-0-0--0-0-0-0-0-0----------2-2-2-2-2-2------------------0--0-|
D:-0-0-0-0-0-0--2-2-2-2-2-2----------2-2-2-2-2-2------------------0--0-|
A:-2-2-2-2-2-2--3-3-3-3-3-3----------0-0-0-0----------------------2--2-|
E:-3---3-3---3----------------------------------------------------3--3-|



chorus
 Pero el planeta Gira, gira a la derecha
:-2-2-2--2-2-2-2-2--3-3---3---3-3-3-3-3-3-|
:-3-3-3--3-3-3-3-3--3-3-3-3-3-3-3-3-3-3-3-|
:-2-2-2--2-2-2-2-2--0-0-0-0-0-0-0-0-0-0-0-|
:-0-0-0------0-0------2-2-2-2-2-2-2-2-2-2-|
:---------------------3---3---3-3-3-3-3-3-|
:-----------------------------------------|

y cada vez ya la noche es mas tibia sin amor se enfría
:-2-2-2--2-2-2-2-2----------------3-3---3---3-3-3-3-3-3-|
:-3-3-3--3-3-3-3-3----------------3-3-3-3-3-3-3-3-3-3-3-|
:-2-2-2--2-2-2-2-2----------------0-0-0-0-0-0-0-0-0-0-0-|
:-0-0-0------0-0--------------------2-2-2-2-2-2-2-2-2-2-|
:-----------------------------------3---3---3-3-3-3-3-3-|
:-------------------------------------------------------|

no tengo un hombre ni a Gael García me siento tan vacia 
:-2-2-2--2-2-2-2-2----------------3-3---3---3-3-3-3-3-3-|
:-3-3-3--3-3-3-3-3----------------3-3-3-3-3-3-3-3-3-3-3-|
:-2-2-2--2-2-2-2-2----------------0-0-0-0-0-0-0-0-0-0-0-|
:-0-0-0------0-0--------------------2-2-2-2-2-2-2-2-2-2-|
:-----------------------------------3---3---3-3-3-3-3-3-|
:-------------------------------------------------------|

 a ver,              a ver,                    que pasa en el siguiente 
:-2-2-2--2-2-2-2-2---3---------------------(3)-----|
:-3-3-3--3-3-3-3-3---3---------------------(3)-----|
:-2-2-2--2-2-2-2-2---0---------------------(0)-----|
:-0-0-0------0-0-----2---------------------(2)-----|
:--------------------3---------------------(3)-----|
:--------------------------------------------------|


  día
e:-3-3-3-----3--3-3-3-----3--3-3-3-----3---3--|
B:-3-3---3---3--3-3---3---3--3-3---3---3---3-3|
G:-0-0---0-0-0--0-0---0-0-0--2-2---2-2-2-0-0-0|
D:-0-0---0-0-0--2-2---2-2-2--2-2---2-2-2-0-0-0|
A:-2-2-----2-2--3-3-----3-3--0-0-----0---2-2-2|
E:-3---------3---------------------------3-3-3|

e:-3-3-3-----3--3-3-3-----3--3-3-3-----3---3--|
B:-3-3---3---3--3-3---3---3--3-3---3---3---3-3|
G:-0-0---0-0-0--0-0---0-0-0--2-2---2-2-2-0-0-0|
D:-0-0---0-0-0--2-2---2-2-2--2-2---2-2-2-0-0-0|
A:-2-2-----2-2--3-3-----3-3--0-0-----0---2-2-2|
E:-3---------3---------------------------3-3-3|


e:-3-3-3-3-3-3--3-3-3-3-3-3--3-3-3-3-3-3-------|
B:-3-3-3-3-3-3--3-3-3-3-3-3--3-3-3-3-3-3-------|
G:-0-0-0-0-0-0--0-0-0-0-0-0--2-2-2-2-2-2--0--0-|
D:-0-0-0-0-0-0--2-2-2-2-2-2--2-2-2-2-2-2--0--0-|
A:-2-2-2-2-2-2--3-3-3-3-3-3--0-0-0-0------2--2-|
E:-3---3-3---3----------------------------3--3-|

e:-3-3-3-3-3-3--3-3-3-3-3-3--3-3-3-3-3-3-------|
B:-3-3-3-3-3-3--3-3-3-3-3-3--3-3-3-3-3-3-------|
G:-0-0-0-0-0-0--0-0-0-0-0-0--2-2-2-2-2-2--0--0-|
D:-0-0-0-0-0-0--2-2-2-2-2-2--2-2-2-2-2-2--0--0-|
A:-2-2-2-2-2-2--3-3-3-3-3-3--0-0-0-0------2--2-|
E:-3---3-3---3----------------------------3--3-|

e:-3-3-3-3-3-3--3-3-3-3-3-3--3-3-3-3-3-3-------|
B:-3-3-3-3-3-3--3-3-3-3-3-3--3-3-3-3-3-3-------|
G:-0-0-0-0-0-0--0-0-0-0-0-0--2-2-2-2-2-2--0--0-|
D:-0-0-0-0-0-0--2-2-2-2-2-2--2-2-2-2-2-2--0--0-|
A:-2-2-2-2-2-2--3-3-3-3-3-3--0-0-0-0------2--2-|
E:-3---3-3---3----------------------------3--3-|

e:-3-3-3-3-3-3--3-3-3-3-3-3--3-3-3-3-3-3-------|
B:-3-3-3-3-3-3--3-3-3-3-3-3--3-3-3-3-3-3-------|
G:-0-0-0-0-0-0--0-0-0-0-0-0--2-2-2-2-2-2--0--0-|
D:-0-0-0-0-0-0--2-2-2-2-2-2--2-2-2-2-2-2--0--0-|
A:-2-2-2-2-2-2--3-3-3-3-3-3--0-0-0-0------2--2-|
E:-3---3-3---3----------------------------3--3-|

 Pero el planeta Gira, gira a la derecha
:-2-2-2--2-2-2-2-2--3-3---3---3-3-3-3-3-3-|
:-3-3-3--3-3-3-3-3--3-3-3-3-3-3-3-3-3-3-3-|
:-2-2-2--2-2-2-2-2--0-0-0-0-0-0-0-0-0-0-0-|
:-0-0-0------0-0------2-2-2-2-2-2-2-2-2-2-|
:---------------------3---3---3-3-3-3-3-3-|
:-----------------------------------------|

y cada vez ya la noche es mas tibia sin amor se enfría
:-2-2-2--2-2-2-2-2----------------3-3---3---3-3-3-3-3-3-|
:-3-3-3--3-3-3-3-3----------------3-3-3-3-3-3-3-3-3-3-3-|
:-2-2-2--2-2-2-2-2----------------0-0-0-0-0-0-0-0-0-0-0-|
:-0-0-0------0-0--------------------2-2-2-2-2-2-2-2-2-2-|
:-----------------------------------3---3---3-3-3-3-3-3-|
:-------------------------------------------------------|

no tengo un hombre ni a Gael García me siento tan vacia 
:-2-2-2--2-2-2-2-2----------------3-3---3---3-3-3-3-3-3-|
:-3-3-3--3-3-3-3-3----------------3-3-3-3-3-3-3-3-3-3-3-|
:-2-2-2--2-2-2-2-2----------------0-0-0-0-0-0-0-0-0-0-0-|
:-0-0-0------0-0--------------------2-2-2-2-2-2-2-2-2-2-|
:-----------------------------------3---3---3-3-3-3-3-3-|
:-------------------------------------------------------|

 a ver,              a ver,                    que pasa en el siguiente 
:-2-2-2--2-2-2-2-2---3---------------------(3)-----|
:-3-3-3--3-3-3-3-3---3---------------------(3)-----|
:-2-2-2--2-2-2-2-2---0---------------------(0)-----|
:-0-0-0------0-0-----2---------------------(2)-----|
:--------------------3---------------------(3)-----|
:--------------------------------------------------|

    ya no soy   ya    no     soy     La infantil 
gt1
e:-3-3-3-3-3-3--3-3-3-3-3-3--3-3-3-3-3-3-------|
B:-3-3-3-3-3-3--3-3-3-3-3-3--3-3-3-3-3-3-------|
G:-0-0-0-0-0-0--0-0-0-0-0-0--2-2-2-2-2-2--0--0-|
D:-0-0-0-0-0-0--2-2-2-2-2-2--2-2-2-2-2-2--0--0-|
A:-2-2-2-2-2-2--3-3-3-3-3-3--0-0-0-0------2--2-|
E:-3---3-3---3----------------------------3--3-|

gt2
e:-3-3-3-----3--3-3-3-----3--3-3-3-----3---3--|
B:-3-3---3---3--3-3---3---3--3-3---3---3---3-3|
G:-0-0---0-0-0--0-0---0-0-0--2-2---2-2-2-0-0-0|
D:-0-0---0-0-0--2-2---2-2-2--2-2---2-2-2-0-0-0|
A:-2-2-----2-2--3-3-----3-3--0-0-----0---2-2-2|
E:-3---------3---------------------------3-3-3|

 criatura    la inocencia se acabo    (eh eh eh)
gt1
e:-3-3-3-3-3-3--3-3-3-3-3-3--3-3-3-3-3-3-------|
B:-3-3-3-3-3-3--3-3-3-3-3-3--3-3-3-3-3-3-------|
G:-0-0-0-0-0-0--0-0-0-0-0-0--2-2-2-2-2-2--0--0-|
D:-0-0-0-0-0-0--2-2-2-2-2-2--2-2-2-2-2-2--0--0-|
A:-2-2-2-2-2-2--3-3-3-3-3-3--0-0-0-0------2--2-|
E:-3---3-3---3----------------------------3--3-|

gt2
e:-3-3-3-----3--3-3-3-----3--3-3-3-----3---3--|
B:-3-3---3---3--3-3---3---3--3-3---3---3---3-3|
G:-0-0---0-0-0--0-0---0-0-0--2-2---2-2-2-0-0-0|
D:-0-0---0-0-0--2-2---2-2-2--2-2---2-2-2-0-0-0|
A:-2-2-----2-2--3-3-----3-3--0-0-----0---2-2-2|
E:-3---------3---------------------------3-3-3|


    ya no soy   ya    no     soy     La de ese
gt1
e:-3-3-3-3-3-3--3-3-3-3-3-3--3-3-3-3-3-3-------|
B:-3-3-3-3-3-3--3-3-3-3-3-3--3-3-3-3-3-3-------|
G:-0-0-0-0-0-0--0-0-0-0-0-0--2-2-2-2-2-2--0--0-|
D:-0-0-0-0-0-0--2-2-2-2-2-2--2-2-2-2-2-2--0--0-|
A:-2-2-2-2-2-2--3-3-3-3-3-3--0-0-0-0------2--2-|
E:-3---3-3---3----------------------------3--3-|

gt2
e:-3-3-3-----3--3-3-3-----3--3-3-3-----3---3--|
B:-3-3---3---3--3-3---3---3--3-3---3---3---3-3|
G:-0-0---0-0-0--0-0---0-0-0--2-2---2-2-2-0-0-0|
D:-0-0---0-0-0--2-2---2-2-2--2-2---2-2-2-0-0-0|
A:-2-2-----2-2--3-3-----3-3--0-0-----0---2-2-2|
E:-3---------3---------------------------3-3-3|

cuerpo extraño  Ahora siente el corazón
gt1
e:-3-3-3-3-3-3--3-3-3-3-3-3--3-3-3-3-3-3-------|
B:-3-3-3-3-3-3--3-3-3-3-3-3--3-3-3-3-3-3-------|
G:-0-0-0-0-0-0--0-0-0-0-0-0--2-2-2-2-2-2--0--0-|
D:-0-0-0-0-0-0--2-2-2-2-2-2--2-2-2-2-2-2--0--0-|
A:-2-2-2-2-2-2--3-3-3-3-3-3--0-0-0-0------2--2-|
E:-3---3-3---3----------------------------3--3-|

gt2
e:-3-3-3-----3--3-3-3-----3--3-3-3-----3---3--|
B:-3-3---3---3--3-3---3---3--3-3---3---3---3-3|
G:-0-0---0-0-0--0-0---0-0-0--2-2---2-2-2-0-0-0|
D:-0-0---0-0-0--2-2---2-2-2--2-2---2-2-2-0-0-0|
A:-2-2-----2-2--3-3-----3-3--0-0-----0---2-2-2|
E:-3---------3---------------------------3-3-3|


 repeat chorus a lots of times
 que pasa en el siguiente dia.....
:-2-2-2--2-2-2-2-2--3-3---3---3-3-3-3-3-3-|
:-3-3-3--3-3-3-3-3--3-3-3-3-3-3-3-3-3-3-3-|
:-2-2-2--2-2-2-2-2--0-0-0-0-0-0-0-0-0-0-0-|
:-0-0-0------0-0------2-2-2-2-2-2-2-2-2-2-|
:---------------------3---3---3-3-3-3-3-3-|
:-----------------------------------------|

   repeat this till end
e:-3-3-3-3-3-3--3-3-3-3-3-3--3-3-3-3-3-3-------|
B:-3-3-3-3-3-3--3-3-3-3-3-3--3-3-3-3-3-3-------|
G:-0-0-0-0-0-0--0-0-0-0-0-0--2-2-2-2-2-2--0--0-|
D:-0-0-0-0-0-0--2-2-2-2-2-2--2-2-2-2-2-2--0--0-|
A:-2-2-2-2-2-2--3-3-3-3-3-3--0-0-0-0------2--2-|
E:-3---3-3---3----------------------------3--3-|

 this is the keyboards at the end, just it case u wanna play, if u dont want to, 
 to hell with it.
e:-----------------------------------------------------|
B:-----------------------------------------------------|
G:-19~~~--17~~~~-16~~~~--14~~~~--12~~~~--10~~~~--7~~~~-|
D:-----------------------------------------------------|
A:-----------------------------------------------------|
E:-----------------------------------------------------|

i'm just exploring boundries, i still like thrash/speed/death metal
            
Submit corrections

↑ Back to top | Tablatures and chords for acoustic guitar and electric guitar, ukulele, drums are parodies/interpretations of the original songs. You may use it for private study, scholarship, research or language learning purposes only