Home » N » Napoleon Coste »

Napoleon Coste - Prelude 5 Tabs

Artists:  A B C D E F G H I J K L M N O P Q R S T U V W X Y Z # 

Prelude 5 Tabs

(ver. 1) Click to play this song!
Napoleon Coste
[Intro]
 
e|-------0-----------------0-----------5-----3----|-1-----------------1-----------------------1----|
B|-------------0-----1-----------1----------------|-------------------------3----------------------|
G|----0-----0-----0-----0-----0-----0-----0-----0-|----0-----------0-----0-----0-------------------|
D|-------------0-----2-----------2-----3-----2----|-0-----------------------3--------------0-----0-|
A|-3-----------------------3----------------------|----------0--2-----0--------------0--2-----0----|
E|------------------------------------------------|-------3-----------------------3----------------|
 
e|-0-----3-----------------0-----------5-----3----|-1--------------------0--1--------------5--3--1-|
B|-------------0-----1-----------1----------------|-------------------3-----------3--1--0----------|
G|----0-----0-----0-----0-----0-----0-----0-----0-|----0-----------------------0--------0----------|
D|-------------0-----2-----------2-----3-----2----|-0--------------0--------0-----3--2--0----------|
A|-3-----------------------3----------------------|----------0--2-----2--3-------------------------|
E|------------------------------------------------|-------3----------------------------------------|
 
e|-0--------------------------------------0-------|-------------0--1--0--------------0--1--3--1--0-|
B|-------------------1--0-----0--1--2--3-----3----|-0--1--3--4-----------3--1--3--4----------------|
G|----0-----------0--------2--------------------5-|-0-----------1-----1-----2-----------2-----2----|
D|----------0--2-----------3-----------4-----3----|------------------------------------------------|
A|-3-----3----------------------------------------|------------------------------------------------|
E|------------------------------------------------|------------------------------------------------|
 
e|-------------0--1--0----------------------------|----------------------------------------0--1----|
B|-4-----4--------------4--2-----2-----3--5--3----|-0-----0-----1--3--1--0-----0--1--2--3--------3-|
G|-4--5--4--2--1-----0-----2--3--2--0-----------5-|-------------------------2----------------------|
D|-------------------------------------4-----4----|-5--6--5--3--2-----2-----3----------------------|
A|------------------------------------------------|------------------------------------------------|
E|------------------------------------------------|-------------------------------------1----------|
 
e|-------------0----------------------------------|------------------------------------------------|
B|-3-----1-----------1-----1-----0-----3-----0----|-1----------------------------------------------|
G|----0-----0-----0-----0-----0-----0-----0-----0-|------------------------------------------------|
D|-------2-----------2-----------0-----------0----|-2--------------------0--2--------------0--2--3-|
A|-------------3-----------------------2----------|-3-----------0--2--3-----------0--2--3----------|
E|-3-----------------------3----------------------|----0--1--3-----------------3-------------------|
 
e|------------------------------------------------|-0-----------------0--3--1--0---------------------|
B|----------------------0--1--------------0--1--3-|----------0--1--3----------------------10--12--13-|
G|-0--------------0--2--------------0--2----------|----0--2-----------------------10--12-------------|
D|-------0--2--3--------------2--3----------------|--------------------------------------------------|
A|----3-------------------------------------------|--------------------------------------------------|
E|------------------------------------------------|--------------------------------------------------|
 
e|-10--------------10--12--13--14--15--13--12------12--13--14--15-|-16--7---8---5---3---5---1---3-|
B|-----13--12--13------------------------------15-----------------|-----6---5---4---5---5---3---3-|
G|----------------------------------------------------------------|-----7---5---5---5---2---2---0-|
D|----------------------------------------------------------------|-----6---7---4---5-------0-----|
A|----------------------------------------------------------------|---------------------4-------2-|
E|----------------------------------------------------------------|-------------------------------|
 
e|-0---1-0-----0------------------|-0------------12-------12-15---|----------7-----8--8--|
B|-1---1---3---3---1---2---3---1--|-1--------13--------13-------0-|-1--------6--------8--|
G|-0---2---2---4---2---2-0-2---2--|-0-----12---------12---------0-|-0--------7--------9--|
D|-------------------------3---1--|-2---------------------------3-|-2--------5--------10-|
A|-3---0---2-------0---2----------|-3---------------------------5-|-3-----------------10-|
E|-------------4-----------1---2--|-3-----------------------------|-------------------8--|
            
Submit corrections

↑ Back to top | Tablatures and chords for acoustic guitar and electric guitar, ukulele, drums are parodies/interpretations of the original songs. You may use it for private study, scholarship, research or language learning purposes only