Home » N » Nanowar Of Steel »

Nanowar Of Steel - Karkagnors Song - The Hobbit Tabs

Artists:  A B C D E F G H I J K L M N O P Q R S T U V W X Y Z # 

Karkagnors Song - The Hobbit Tabs

(ver. 1) Click to play this song!
Nanowar Of Steel
E---------------------0--3-1--0---------5---5-------------------------------------| 
B----0--1---0--1--3---1---------1---------8---6--5---8-6-8-5------5-6-7-5---------| 
G--2--------0---------0-----------2-2------------------------7-------------5------| 
D--2--------0-----------------------------------------------------------------7---| 
A--0------------------3-----------------------------------------------------------| 
E-----------3---------------------------------------------------------------------| 
   Am       G         C


change the ending part

E---------------------0--3-1--0---------5---5-------------------------------------| 
B----0--1---0--1--3---1---------1---------8---6--5---8-6-8-5----------------------| 
G--2--------0---------0-----------2-2------------------------7------5-4-5-4-------| 
D--2--------0---------------------------------------------------------------7-----| 
A--0------------------3-----------------------------------------------------------| 
E-----------3---------------------------------------------------------------------| 
   Am       G         C            
Submit corrections

↑ Back to top | Tablatures and chords for acoustic guitar and electric guitar, ukulele, drums are parodies/interpretations of the original songs. You may use it for private study, scholarship, research or language learning purposes only