Home » N » Naked Raygun »

Naked Raygun - Roller Queen Tabs

Artists:  A B C D E F G H I J K L M N O P Q R S T U V W X Y Z # 

Roller Queen Tabs

(ver. 1) Click to play this song!
Naked Raygun
bass
e|-|----------------|-|
B|-|----------------|-|
G|-|----------------|-|
D|-|----------------|-|
A|-|-0--------------|-|
E|-|----------------|-|
Main riff

bass
e|-|-----------------|-----------------|-|
B|-|-----------------|-----------------|-|
G|-|-----------------|-----------------|-|
D|-|-----------------|-----------------|-|
A|-|-----3-3-3-3-3-2-|-----------------|-|
E|-|-0-0-------------|-3---------------|-|
     1 2 3 4 5 6 7 8   1 2 3 4 5 6 7 8

guitar
e|-|-----------------|-----------------|-|
B|-|-----------------|-----------------|-|
G|-|-----5~~~~-5-5-4-|-----------------|-|
D|-|-2---5~~~~-5-5-4-|-5-----5/7---7-7-|-|
A|-|-2---3~~~~-3-3-2-|-5-----5/7~~-7-7-|-|
E|-|-0-x-------------|-3-x-x-3/5~~-5-5-|-|
     1 2 3 4 5 6 7 8   1 2 3 4 5 6 7 8

(i like strum muting, but it's not really played)

Chorus

bass
e|-|-----------------|-----------------|-----------------|-----------------|-|
B|-|-----------------|-----------------|-----------------|-----------------|-|
G|-|-x1--------------|-x7--------------|-x1--------------|-x7--------------|-|
D|-|-----------------|-----------------|-----------------|-----------------|-|
A|-|-7-x-x-7-x-x-7-x-|-x-x-x-7-x-x-7-x-|-----------------|-----------------|-|
E|-|-----------------|-----------------|-0~~~~~~-0~~~~~~-|-----------------|-|
     1 2 3 4 5 6 7 8   1 2 3 4 5 6 7 8   1 2 3 4 5 6 7 8   1 2 3 4 5 6 7 8

guitar
e|-|-----------------|-|
B|-|-----------------|-|
G|-|-999999999999999-|-|
D|-|-999999999999999-|-| pretty much play an Em chord really fast
A|-|-777777777777777-|-|
E|-|-----------------|-|
     1 2 3 4 5 6 7 8

vocals does something like this on the octave switch (not entirely sure about the placement of them)
this would be the second f**k yo-O-O-O-ou type thing

e|-|-----------------|-----------------|-----------------|-----------------|-|
B|-|-----------------|-----------------|-----------------|-----------------|-|
G|-|-----------------|-----------------|-----------------|-----------------|-|
D|-|-----------------|-----------------|-----------------|-----------------|-|
A|-|-----------------|-------------7h9-|-9~~~~~~~~~~-9p7-|-7---------------|-|
E|-|-----------------|-----------------|-----------------|-----------------|-|
     1 2 3 4 5 6 7 8   1 2 3 4 5 6 7 8   1 2 3 4 5 6 7 8   1 2 3 4 5 6 7 8


feedback part?
e|-|-x2--------------|-----------------|-----------------|-|
B|-|-----------------|-7~~~~~~~~~~~~~~-|-~~~~~~~~~~~~~~~-|-|
G|-|-----------------|-----------------|-----------------|-|
D|-|-----------------|-----------------|-----------------|-|
A|-|-----------------|-----------------|-----------------|-|
E|-|-----------------|-----------------|-----------------|-|
     1 2 3 4 5 6 7 8   1 2 3 4 5 6 7 8   1 2 3 4 5 6 7 8
                                   
e|-|-----------------|-----------------|-x2--------------|-|
B|-|-----------------|-----------------|-----------------|-|
G|-|-----------------|-7h9~~~~~~~~~~~~-|-~~~~~~~~~~~~~~~-|-|
D|-|-7~~~~~~~~~~~~~~-|-----------------|-----------------|-|
A|-|-----------------|-----------------|-----------------|-|
E|-|-----------------|-----------------|-----------------|-|
     1 2 3 4 5 6 7 8   1 2 3 4 5 6 7 8   1 2 3 4 5 6 7 8

it's really one octave up. the notes would be:
e|-|---14----0-----10/12-----|-|
B|-|-------------------------|-|
G|-|-------------------------|-|
D|-|-------------------------|-|
A|-|-------------------------|-|
E|-|-------------------------|-|
but spaced out like the tab

then repeat.            
Submit corrections

↑ Back to top | Tablatures and chords for acoustic guitar and electric guitar, ukulele, drums are parodies/interpretations of the original songs. You may use it for private study, scholarship, research or language learning purposes only