Home » N » Naked Raygun »

Naked Raygun - Backlash Jack Tabs

Artists:  A B C D E F G H I J K L M N O P Q R S T U V W X Y Z # 

Backlash Jack Tabs

(ver. 1) Click to play this song!
Naked Raygun
e|-|--------------------------------------------------------------------|-|
B|-|--------------------------------------------------------------------|-|
G|-|----------------------7-----7----------6-----6----------6-----6-----|-|
D|-|-----4-----4------------------7----------------6----------------6---|-|
A|-|-------------4----5-5---5-5-----5--4-4---4-4-----4--4-4---4-4-----4-|-|
E|-|-2-2---2-2-----2----------------------------------------------------|-|
     1 2 3 4 1 2 3 4  1 2 3 4 1 2 3 4  1 2 3 4 1 2 3 4  1 2 3 4 1 2 3 4

e|-|--------------------------------------------------------------------|-|
B|-|--------------------------------------------------------------------|-|
G|-|------------------7---7-7---7-7-7--6---6-6---6-6-6--6---6-6---6-6-6-|-|
D|-|-4---4-4---4-4-4--7---7-7---7-7-7--6---6-6---6-6-6--6---6-6---6-6-6-|-|
A|-|-4---4-4---4-4-4--5---5-5---5-5-5--4---4-4---4-4-4--4---6-6---6-6-6-|-|
E|-|-2---2-2---2-2-2----------------------------------------------------|-|
     1 2 3 4 1 2 3 4  1 2 3 4 1 2 3 4  1 2 3 4 1 2 3 4  1 2 3 4 1 2 3 4

Backlash, Jack said it would happen to me
That is what he said to me
Tremors cause the weak to flee
So choose your friends
And choose wisely

e|-|--------------------------------------------------------------------|-|
B|-|--------------------------------------------------------------------|-|
G|-|-7---7-7---7-7-7--7---7-7---7-7-7--6---6-6---6-6-6--6---6-6---6-6-6-|-|
D|-|-7---7-7---7-7-7--7---7-7---7-7-7--6---6-6---6-6-6--6---6-6---6-6-6-|-|
A|-|-5---5-5---5-5-5--5---5-5---5-5-5--4---4-4---4-4-4--4---4-4---4-4-4-|-|
E|-|--------------------------------------------------------------------|-|
     1 2 3 4 1 2 3 4  1 2 3 4 1 2 3 4  1 2 3 4 1 2 3 4  1 2 3 4 1 2 3 4

G|-|--------------------------------------------------------------------|-|
D|-|---------7----------------7----------------6------------6-------6---|-|
A|-|-5---5-5---5-5-5----5---5---5-5-5--4---4-4---4-4-4----4---4-4-----4-|-|
E|-|--------------------------------------------------------------------|-|
     1 2 3 4 1 2 3 4  1 2 3 4 1 2 3 4  1 2 3 4 1 2 3 4  1 2 3 4 1 2 3 4
         
The first to abandon
Formed the band wagon
The first rat off the ship
Is the one to be too hip

e|-|-x4---------------------------------|-x2---------------------------------|-|
B|-|------------------------------------|------------------------------------|-|
G|-|-9---9----9-9-9-9--7---7----7-7-7-7-|-9-----------------7----------------|-|
D|-|-9---9----9-9-9-9--7---7----7-7-7-7-|-9-----------------7----------------|-|
A|-|-7---7----7-7-7-7--5---5----5-5-5-5-|-7-----------------5----------------|-|
E|-|------------------------------------|------------------------------------|-|
     1 2 3 4  1 2 3 4  1 2 3 4  1 2 3 4   1 2 3 4  1 2 3 4  1 2 3 4  1 2 3 4

G|-|-x4---------------------------------|------------------------------------|-|
D|-|-----------------------4-5---4------|------------------------------------|-|
A|-|-7---7----7-7-7-7--5------------7-5-|-7-----------------5----------------|-|
E|-|------------------------------------|------------------------------------|-|
     1 2 3 4  1 2 3 4  1 2 3 4  1 2 3 4   1 2 3 4  1 2 3 4  1 2 3 4  1 2 3 4

e|-|------------------------------------|------------------------------------|-|         
B|-|------------------------------------|------------------------------------|-|         
G|-|-9---9-9--7---7-7--9---9-9--7---7-7-|-9---9-9--7---7-7--9---9-9--7---7-7-|-|         
D|-|-9---9-9--7---7-7--9---9-9--7---7-7-|-9---9-9--7---7-7--9---9-9--7---7-7-|-|         
A|-|-7---7-7--5---5-5--7---7-7--5---5-5-|-7---7-7--5---5-5--7---7-7--5---5-5-|-|         
E|-|------------------------------------|------------------------------------|-|
     1 2 3 4  1 2 3 4  1 2 3 4  1 2 3 4   1 2 3 4  1 2 3 4  1 2 3 4  1 2 3 4     

G|-|------------------------------------|------------------------------------|-|
D|-|------------------------------------|------------------------------------|-|  
A|-|-7--------5--------7--------5-------|-7--------5--------2---4----5---7---|-|  
E|-|------------------------------------|------------------------------------|-|  
     1 2 3 4  1 2 3 4  1 2 3 4  1 2 3 4   1 2 3 4  1 2 3 4  1 2 3 4  1 2 3 4  

  the rest of the bass goes with the guitar
         
Backlash, Jack said it'd happen to me
Again he warned me of what I'd see
When praises come too easily
Pay for lip, backlash is free

Don't touch the stuff
I think once is enough
His ears think of the sounds
He dreams what he has found

Backlash, Jack said it'd happen to me
Again he warned me of what I'd see
Tremors cause the weak to flee
Pay for lip, backlash is free            
Submit corrections

↑ Back to top | Tablatures and chords for acoustic guitar and electric guitar, ukulele, drums are parodies/interpretations of the original songs. You may use it for private study, scholarship, research or language learning purposes only