» » »

Nailbomb - Guerillas Tabs

Artists:  A B C D E F G H I J K L M N O P Q R S T U V W X Y Z # 

Guerillas Tabs

(ver. 1) Click to play this song!
Nailbomb
 Rating:
4.3/5 (16 votes)

 Guerillas lessons Tabs too difficult? Try these video lessons and learn fast
 
                e|---------------------------------------------------------------|
B|---------------------------------------------------------------|
G|---------------------------------------------------------------|
D|-4-------4-------4-------4-------------------------------------|
A|-2-3-3-3-2-3-3-3-2-3-3-3-2-3-3-3-------------------------------|
E|---1-1-1---1-1-1---1-1-1---1-1-1-------------------------------|

e|---------------------------------------------------------------|
B|---------------------------------------------------------------|
G|---------------------------------------------------------------|
D|-4---------4---------------------------------------------------|
A|-2-2-2-2-2-2---------------------------------------------------|
E|---0-0-0-0--0-0-0-0-0-0-0-0-0-0-0-0-0-0-0-0-0-0-0-0------------|

e|---------------------------------------------------------------|
B|---------------------------------------------------------------|
G|---------------------------------------------------------------|
D|-4---------4---------------------------------------------------|
A|-2-2-2-2-2-2---------------------------------------------------|
E|---0-0-0-0--0-0-0-0-0-0-0-0-0-0-0-0-0-0-0-0-0-0-0-0------------|

e|---------------------------------------------------------------|
B|---------------------------------------------------------------|
G|---------------------------------------------------------------|
D|-4---------4---------------------------------------------------|
A|-2-2-2-2-2-2---------------------------------------------------|
E|---0-0-0-0--0-0-0-0-0-0-0-0-0-0-0-0-0-0-0-0-0-0-0-0------------|

e|---------------------------------------------------------------|
B|---------------------------------------------------------------|
G|---------------------------------------------------------------|
D|-4---------4---------------------------------------------------|
A|-2-2-2-2-2-2---------------------------------------------------|
E|---0-0-0-0--0-0-0-0-0-0-0-0-0-0-0-0-0-0-0-0-0-0-0-0------------|

e|---------------------------------------------------------------|
B|---------------------------------------------------------------|
G|---------------------------------------------------------------|
D|-4---------4---------------------------------------------------|
A|-2-2-2-2-2-2---------------------------------------------------|
E|---0-0-0-0--0-0-0-0-0-000-000-0-0-0-0-0-0-0-0-0-0--------------|

e|---------------------------------------------------------------|
B|---------------------------------------------------------------|
G|---------------------------------------------------------------|
D|-4---------4---------------------------------------------------|
A|-2-2-2-2-2-2---------------------------------------------------|
E|---0-0-0-0--0-0-0-0-0-000-000-0-0-0-0-0-0-0-0-0-0--------------|

e|---------------------------------------------------------------|
B|---------------------------------------------------------------|
G|---------------------------------------------------------------|
D|-4---------4---------------------------------------------------|
A|-2-2-2-2-2-2---------------------------------------------------|
E|---0-0-0-0--0-0-0-0-0-000-000-0-0-0-0-0-0-0-0-0-0--------------|

e|---------------------------------------------------------------|
B|---------------------------------------------------------------|
G|---------------------------------------------------------------|
D|-4---------4---------------------------------------------------|
A|-2-2-2-2-2-2---------------------------------------------------|
E|---0-0-0-0--0-0-0-0-0-000-000-0-0-0-0-0-0-0-0-0-0--------------|

e|---------------------------------------------------------------|
B|---------------------------------------------------------------|
G|---------------------------------------------------------------|
D|-4-------------------------------------------------------------|
A|-2-2-2-2-2-----------------------------------------------------|
E|---0-0-0-0--0-0-0-0-0-000-000-0-0-0-0-0-0-0-0-0-0--------------|

e|---------------------------------------------------------------|
B|---------------------------------------------------------------|
G|---------------------------------------------------------------|
D|-4------------7-5-9-8-------------7-5-9-8----------------------|
A|-2-2-2-2-2-2--5-3-7-6-2-2-2-2-2-2-5-3-7-6----------------------|
E|---0-0-0-0-0----------0-0-0-0-0-0------------------------------|

e|---------------------------------------------------------------|
B|---------------------------------------------------------------|
G|---------------------------------------------------------------|
D|-4------------7-5-9-8-------------7-5-9-8----------------------|
A|-2-2-2-2-2-2--5-3-7-6-2-2-2-2-2-2-5-3-7-6----------------------|
E|---0-0-0-0-0----------0-0-0-0-0-0------------------------------|

e|---------------------------------------------------------------|
B|---------------------------------------------------------------|
G|---------------------------------------------------------------|
D|-4------------7-5-9-8-------------7-5-9-8----------------------|
A|-2-2-2-2-2-2--5-3-7-6-2-2-2-2-2-2-5-3-7-6----------------------|
E|---0-0-0-0-0----------0-0-0-0-0-0------------------------------|

e|---------------------------------------------------------------|
B|---------------------------------------------------------------|
G|---------------------------------------------------------------|
D|-4------------7-5-9-8-------------7-5-9-8----------------------|
A|-2-2-2-2-2-2--5-3-7-6-2-2-2-2-2-2-5-3-7-6----------------------|
E|---0-0-0-0-0----------0-0-0-0-0-0------------------------------|

e|---------------------------------------------------------------|
B|---------------------------------------------------------------|
G|---------------------------------------------------------------|
D|-4------------7-5-9-8-------------7-5-9-8----------------------|
A|-2-2-2-2-2-2--5-3-7-6-2-2-2-2-2-2-5-3-7-6----------------------|
E|---0-0-0-0-0----------0-0-0-0-0-0------------------------------|

e|---------------------------------------------------------------|
B|---------------------------------------------------------------|
G|---------------------------------------------------------------|
D|-4---------4---------------------------------------------------|
A|-2-2-2-2-2-2---------------------------------------------------|
E|---0-0-0-0--0-0-0-0-0-0-0-0-0-0-0-0-0-0-0-0-0-0-0-0------------|

e|---------------------------------------------------------------|
B|---------------------------------------------------------------|
G|---------------------------------------------------------------|
D|-4---------4---------------------------------------------------|
A|-2-2-2-2-2-2---------------------------------------------------|
E|---0-0-0-0--0-0-0-0-0-0-0-0-0-0-0-0-0-0-0-0-0-0-0-0------------|

e|---------------------------------------------------------------|
B|---------------------------------------------------------------|
G|---------------------------------------------------------------|
D|-4---------4---------------------------------------------------|
A|-2-2-2-2-2-2---------------------------------------------------|
E|---0-0-0-0--0-0-0-0-0-0-0-0-0-0-0-0-0-0-0-0-0-0-0-0------------|

e|---------------------------------------------------------------|
B|---------------------------------------------------------------|
G|---------------------------------------------------------------|
D|-4---------4---------------------------------------------------|
A|-2-2-2-2-2-2---------------------------------------------------|
E|---0-0-0-0--0-0-0-0-0-0-0-0-0-0-0-0-0-0-0-0-0-0-0-0------------|

e|---------------------------------------------------------------|
B|---------------------------------------------------------------|
G|---------------------------------------------------------------|
D|-4---------4---------------------------------------------------|
A|-2-2-2-2-2-2---------------------------------------------------|
E|---0-0-0-0--0-0-0-0-0-000-000-0-0-0-0-0-0-0-0-0-0--------------|

e|---------------------------------------------------------------|
B|---------------------------------------------------------------|
G|---------------------------------------------------------------|
D|-4---------4---------------------------------------------------|
A|-2-2-2-2-2-2---------------------------------------------------|
E|---0-0-0-0--0-0-0-0-0-000-000-0-0-0-0-0-0-0-0-0-0--------------|

e|---------------------------------------------------------------|
B|---------------------------------------------------------------|
G|---------------------------------------------------------------|
D|-4---------4---------------------------------------------------|
A|-2-2-2-2-2-2---------------------------------------------------|
E|---0-0-0-0--0-0-0-0-0-000-000-0-0-0-0-0-0-0-0-0-0--------------|

e|---------------------------------------------------------------|
B|---------------------------------------------------------------|
G|---------------------------------------------------------------|
D|-4---------4---------------------------------------------------|
A|-2-2-2-2-2-2---------------------------------------------------|
E|---0-0-0-0--0-0-0-0-0-000-000-0-0-0-0-0-0-0-0-0-0--------------|

e|---------------------------------------------------------------|
B|---------------------------------------------------------------|
G|---------------------------------------------------------------|
D|-4-------------------------------------------------------------|
A|-2-2-2-2-2-----------------------------------------------------|
E|---0-0-0-0--0-0-0-0-0-000-000-0-0-0-0-0-0-0-0-0-0--------------|

e|---------------------------------------------------------------|
B|---------------------------------------------------------------|
G|---------------------------------------------------------------|
D|-4------------7-5-9-8-------------7-5-9-8----------------------|
A|-2-2-2-2-2-2--5-3-7-6-2-2-2-2-2-2-5-3-7-6----------------------|
E|---0-0-0-0-0----------0-0-0-0-0-0------------------------------|

e|---------------------------------------------------------------|
B|---------------------------------------------------------------|
G|---------------------------------------------------------------|
D|-4------------7-5-9-8-------------7-5-9-8----------------------|
A|-2-2-2-2-2-2--5-3-7-6-2-2-2-2-2-2-5-3-7-6----------------------|
E|---0-0-0-0-0----------0-0-0-0-0-0------------------------------|

e|---------------------------------------------------------------|
B|---------------------------------------------------------------|
G|---------------------------------------------------------------|
D|-4------------7-5-9-8-------------7-5-9-8----------------------|
A|-2-2-2-2-2-2--5-3-7-6-2-2-2-2-2-2-5-3-7-6----------------------|
E|---0-0-0-0-0----------0-0-0-0-0-0------------------------------|

e|---------------------------------------------------------------|
B|---------------------------------------------------------------|
G|---------------------------------------------------------------|
D|-4------------7-5-9-8-------------7-5-9-8----------------------|
A|-2-2-2-2-2-2--5-3-7-6-2-2-2-2-2-2-5-3-7-6----------------------|
E|---0-0-0-0-0----------0-0-0-0-0-0------------------------------|

e|---------------------------------------------------------------|
B|---------------------------------------------------------------|
G|---------------------------------------------------------------|
D|-4------------7-5-9-8-------------7-5-9-8----------------------|
A|-2-2-2-2-2-2--5-3-7-6-2-2-2-2-2-2-5-3-7-6----------------------|
E|---0-0-0-0-0----------0-0-0-0-0-0------------------------------|

e|---------------------------------------------------------------|
B|---------------------------------------------------------------|
G|---------------------------------------------------------------|
D|-4---------4---------------------------------------------------|
A|-2-2-2-2-2-2---------------------------------------------------|
E|---0-0-0-0--0-0-0-0-0-000-000-0-0-0-0-0-0-0-0-0-0--------------|

e|---------------------------------------------------------------|
B|---------------------------------------------------------------|
G|---------------------------------------------------------------|
D|-4---------4---------------------------------------------------|
A|-2-2-2-2-2-2---------------------------------------------------|
E|---0-0-0-0--0-0-0-0-0-000-000-0-0-0-0-0-0-0-0-0-0--------------|

e|---------------------------------------------------------------|
B|---------------------------------------------------------------|
G|---------------------------------------------------------------|
D|-4---------4---------------------------------------------------|
A|-2-2-2-2-2-2---------------------------------------------------|
E|---0-0-0-0--0-0-0-0-0-000-000-0-0-0-0-0-0-0-0-0-0--------------|

e|---------------------------------------------------------------|
B|---------------------------------------------------------------|
G|---------------------------------------------------------------|
D|-4---------4---------------------------------------------------|
A|-2-2-2-2-2-2---------------------------------------------------|
E|---0-0-0-0--0-0-0-0-0-000-000-0-0-0-0-0-0-0-0-0-0--------------|

e|---------------------------------------------------------------|
B|---------------------------------------------------------------|
G|---------------------------------------------------------------|
D|-4-------------------------------------------------------------|
A|-2-2-2-2-2-----------------------------------------------------|
E|---0-0-0-0--0-0-0-0-0-000-000-0-0-0-0-0-0-0-0-0-0--------------|

            
Submit corrections


        Guerillas lessons Hard to play? Try these video lessons and learn fast Guerillas lessons
        
↑ Back to top | Tablatures and chords for acoustic guitar and electric guitar, ukulele, drums are parodies/interpretations of the original songs. You may use it for private study, scholarship, research or language learning purposes only