Home » N » Naglfar »

Naglfar - When Autmns Storms Come Tabs

Artists:  A B C D E F G H I J K L M N O P Q R S T U V W X Y Z # 

When Autmns Storms Come Tabs

(ver. 1) Click to play this song!
Naglfar
              
       FIGURE 1                                         FIGURE 2

   TREM.PICK.............
e|---7---------10---------7---9---10-------6------I-------------------------------------|
B|---8---------11---------8---10--11-------7------I-------------------------------------|
G|---9---------12---------9---11--12-------8------I-------------------------------------|
D|---9---------12---------9---11--12-------8------I----2---5--2--4--5----8--------------|  INTRO
A|------------------------------------------------I----2---5--2--4--5----6--------------|
E|------------------------------------------------I----0---3--0--2--3----6--------------|


  play lightly palm mute.......................................................................
e|-----------------------------------------------------------------------------------------------|  
B|-----------------------------------------------------------------------------------------------|
G|---9----------11-----------12---------------11--9-------8-------10---------11-----------10--8--|  BRIDGE 
D|------9--9---------9-9-----------9--9---9------------------8-8------8--8-------8-8---8---------|  GUIT 1.
A|-----------------------------------------------------------------------------------------------|
E|-----------------------------------------------------------------------------------------------|

   lightly mute.......................................................................
e|---------------------------------------------------------------------------------------|
B|---------------------------------------------------------------------------------------|
G|--9---------11-----------12--------------11---9----------------------------------------|
D|-----9-9---------9-9---------9--9-----9---------------6--------8--------9-------8--6---|
A|---------------------------------------------------------6-6-------6-6-----6-6---------|
E|---------------------------------------------------------------------------------------|


e|---------------------------------------------------------------------------|
B|--------------------------------4------------------------------------------|BACK POWERCHORDS FOR BRIDGE!
G|---4----------------------------4------------------------------------------|
D|---2----------------------------6------------------------------------------| GUIT 2.
A|---2----------------------------6------------------------------------------|
E|---0----------------------------4------------------------------------------|


e|---------------------------------------------------------------------------|
B|---------------------------------------------------------------------------|
G|---------------------------------------------------------------------------| PREVERSE
D|-------5---7---9---------9---7---4-------5--7--9---10-9---7---9------------|
A|-------7---9---10--------10--9---5-------7--9--10--12-10--9--10------------| BOTH GUITARS
E|--0------------------0----------------0------------------------------------|



e|----------------------------------------------------------------------------------|
B|----------------------------------------------------------------------------------|
G|----------------------------------------------------------------------------------| VERSE
D|---7777-----7777------7777------9-10--10101010-99--777---------999--777--555--44--|
A|---------9--------9---------9---------------------------1111----------------------|
E|----------------------------------------------------------------------------------|


  REPEAT PERVERSE!


                                                       TREM.PICK...................
e|----------------------------I---7---6-----2---3----8-----------------------------|
B|----------------------------I---8---7-----3---4----9-----------------------------|
G|--9-----8---------------10--I---9---8-----4---5----10----------------------------|CHORUS
D|--9-----8----9---10-----10--I---9---8-----4---5----10----------------------------|
A|--7-----6----9---10-----8---I---7---6-----2---3----8-----------------------------|
E|--0----------7---8----------I----------------------------------------------------|



e|-----------------------------------------------------------------------------------------|BACK CHORDS
B|-----------------------------------------------------------------------------------------|FOR CHORUS!
G|--------4--------------------3--------------------0----------------------3---------------|
D|-----5-----5--------------4-----4--------------1------1--------------4--------4----------|
A|--7------------7-----6--------------6------3-------------3------6------------------6-----|
E|-----------------------------------------------------------------------------------------|



I--------------------------------I
I--------------------------------I
I-----------------------------5--I END RIFF 2X
I--2---------------2----------5--I
I--2-------5-------2--4--5----3--I
I--0--0-0--3--0-0--0--2--3-------I
            
Submit corrections

↑ Back to top | Tablatures and chords for acoustic guitar and electric guitar, ukulele, drums are parodies/interpretations of the original songs. You may use it for private study, scholarship, research or language learning purposes only