Home » N » Naglfar »

Naglfar - Emerging From Her Weeping Tabs

Artists:  A B C D E F G H I J K L M N O P Q R S T U V W X Y Z # 

Emerging From Her Weeping Tabs

(ver. 1) Click to play this song!
Naglfar
    GUITAR 1.                  GUITAR 2. Let ring through guit 1...................................

eI-------------------------------------------------------------------------------------------------|I
B|------------------------------------------0-----------------------------------0------------------|
G|--4------4-5---5-4---4-3--------------4--------4-------4------------------5---------5---------5--| INTRO
D|--4------4-5---5-4---4-3----------4----------------4------------------5------------------5-------|
A|--2------2-3---3-2---2-1------2---------------------------------3--------------------------------|
E|--2------2-3---3-2---2-1-------------------------------------------------------------------------|


  Let ring...........................................................
e|-----------------------------------------------0-------------------|
B|-----------0-------------------------------0------0----------------|
G|--------4------4-------4----------------3-------------3------------|
D|-----4-------------4----------------3---------------------3--------|
A|-2-----------------------------1-----------------------------------|
E|-------------------------------------------------------------------|


e|-------------------------------------------------------------------------------------------|
B|-------------------------------------------------------------------------------------------|VERSE
G|-----------------------------------------------5-5-5--4-4-4-------------------------4-4-4--|
D|---------------5-5-5-5----------------------5-----------------7-7-7--5-5-5--7-7--7---------|
A|--------------------------9-9-9-9----5-5-5--3----------------------------------------------|
E|-0-0-0-0-0---------------------------------------------------------------------------------|i

e|------------------------------------------|
B|------------------------------------------|
G|--------5-5-5--4-4-4----------------------|
D|--7--5-----------------7-7-7--5-5-5--4----|
A|--5--3-------------------------------5----|
E|------------------------------------------|


     VERSE IN DIFFERENT FINGERPOSITION
I---------------------------------------------------------------------------------------------------------|I
I---------------------------------------------------------------------------------------------------------|I
I----------------------------------------5-5-5--4-4-4--2-2-2--0-0--2-2--4-4--5-5-4-4-2-2-0-0--------------|I
I--2-2-2-2---5-5-5-5--4-4-4-4--0-0--7-5-------------------------------------------------------4-4-0-0-----|I
I-----------------------------------5-3-------------------------------------------------------------------|I
I---------------------------------------------------------------------------------------------------------|I

e|----------------------------------------------------------------------------------|
B|----------------------------------------------------------------------------------|
G|---------------------------------------4-4----------------------------------------| CHORUS
D|-2-2-2-2--4-4-4-4--4h-5-2-2-2-2---2-2-------5-5--4-4-4-4-4h-5-7-7-7--5-4-------4--|I
A|---------------------------------------------------------------------------7------|
E|----------------------------------------------------------------------------------|


  VERSE:1:43


e|---------------------------------------------------------------------------|
B|---------------------------------------------------------------------------|PIANO BRIDGE
G|-------4-2---------2-0----------2------4--2--------------------------------|ARRANG. FOR GUITAR
D|---2----------5---------4----5-----4-----------5-4--0-2--------------------|
A|---------------------------------------------------------------------------|
E|---------------------------------------------------------------------------|

   INTERLUDE:2:51-3:26
eI------------------------------------------------------------------------------------------------------|i
BI----------------------------------------------7-7-7-7--8-8-7-7----------------------------------------|i
GI------------4-4-4-4--5-5--4-4-------------------------------------------------------------------------|i
D|-2-2-2-2---------------------------2-2-2-2----------------------------------4-4-4-4-5-5----4h-5-4-----|i
A|-------------------------------------------------------------------3-3-3-3--------------3----------5--|
E|------------------------------------------------------------------------------------------------------|            
Submit corrections

↑ Back to top | Tablatures and chords for acoustic guitar and electric guitar, ukulele, drums are parodies/interpretations of the original songs. You may use it for private study, scholarship, research or language learning purposes only