Home » N » Naglfar »

Naglfar - Black God Aftermath Tabs

Artists:  A B C D E F G H I J K L M N O P Q R S T U V W X Y Z # 

Black God Aftermath Tabs

(ver. 1) Click to play this song!
Naglfar
e|--------------------------------------------------------------------------------------|
B|--------------------------------------------------------------------------------------|
G|--------------------------------------------------------------------------------------|INTRO
D|--------------------------------2----4--5---------4---5--------4--5----5--4--6--------|
A|--12----------------------------2----6--7----2----6---7---2----6--7----7--6--8--------|
E|--12-sl.//////////////////////--0------------0------------0------------0--------------|



e|--------------------3x--------------------------|------------------------------------------|
B|------------------------------------------------|------------------------------------------|
G|----------------------------------------8-------|-----------------1010--9------8-----------| FILL  1
D|---1010-9-------8-----------1010-9-10------10---|--------------------------10-------2------|
A|------------10----------------------------------|--7-8-----7------------------------2------|
E|------------------------------------------------|-------8---------------------------0------|



e|---------------------------------------------------------------------------|
B|---------------------------------------------------------------------------|
G|---------------------------------------------------------------------------| PRE-VERSE
D|---------------------------------------------------------------------------|
A|------77--10--7-9h10p9--7---5v----------7--10--9-7------------6v-----------|
E|--0---------------------------------0---------------88-77-88---------------|



e|--------------------------------------------------------------------------------|
B|--------------------------------------------------------------------------------|
G|-------------------------------------------------------------------------8------|
D|--444444--5-4-2---555555--7-5--4------------99--1010-9-7----10----7-9----8------|
A|--222222--2-2-2---333333--3-3--3--------00------------------10----7-9----6------|
E|------------------------------------------------------------8-----5-7-----------|



e|-------------------------------------------------------------|I-----------------------------|
B|-------------------------------------------------------------|I-----------------------------| VERSE
G|-------------------------------------------------------------|I-----------------------------|
D|--5--4----5----4--5---4--5------------------------------4--4-|I-----------------------------|
A|--7--6sl.-7----6--7---6--7------5-6----5-6----5-6----5--6--6-|I---7-7---2----6--------------|
E|--0----------0------0-----------7-8--0-7-8-0--7-8--0-7-------|I---5-5---0----4--------------|



e|-----------------------------------------------------------------------------|
B|-----------------------------------------------------------------------------|
G|-------------------------------------------------44-55-4-2---5-5--2---4------| CHORUS
D|-2-2-2-2---4--2-0----4-4-4-4-4--5-5-5--4---------------------3-3--2---2------|
A|-3-3-3-3---3--3-0----5-5-5-5-5--5-5-5--5---00----------------3-3--0---2------|
E|-----------------------------------------------------------------------------|


  REPEAT:INTRO
         PREVERSE
         VERSE  



   BRIDGE:let ring with distortion.................................................................
e|--------------7-------------------------10--------------------------------------------------------|
B|-----------8-----8--------------------------11------------------------2------------------2--------|
G|--------9------------9-------------9------------12-----------------3-----3------------3-----3-----|
D|-----9--------------------------9-------------------------------3-----------3-------3---------3---|
A|--7-------------------------7-------------------------------1--------------------1----------------|
E|--------------------------------------------------------------------------------------------------|

e|----------------------------------------------------------------------|
B|----------------------------------------------------------------------|
G|-------5---------4----------5----------4----------5----------8----9---|
D|-----5--------4----------5---------4-----------5---------8--------9---|
A|--3-------2-----------3--------2------------3--------6------------7---|
E|------------------------------------------------------------------0---|




eI--------------------------------------------------------------------------|
BI--------------------------------------------------------------------------|
GI-----------------------------------------------------7p6h7p6--------------| INTERLUDE
DI--------------------------------------9---8------8-------------5----------|
AI--10p777---10p777---10p777---7-h-10----------8----------------------7-----|
EI--------------------------------------------------------------------------|


I-----------------------------------------------------------------10--------------|
I-------------------------------------------------------8-7-------------8---------|
I-------------------------------------------------------------9-------------------|
I-------------------------------------------88-----8------------------------------|
I--10p777--10p777----10p7777---10-9--6---------8----------------------------------|
I---------------------------------------------------------------------------------|


I----------------------------------------------------------------------------------|
I----------------------------------------------------------------------------------|
I---------------------------------------------------5--------4--------5-------8----|
I------------------------------------------------5---------4-------5--------8------|
I----10p7777--10p777-10p777----10-9-----------3---------2-------3---------6--------|
I-------------------------------------11-------------------------------------------|            
Submit corrections

↑ Back to top | Tablatures and chords for acoustic guitar and electric guitar, ukulele, drums are parodies/interpretations of the original songs. You may use it for private study, scholarship, research or language learning purposes only