» » »

My Vitriol - The Gentle Art Of Chocking Tabs

Artists:  A B C D E F G H I J K L M N O P Q R S T U V W X Y Z # 

The Gentle Art Of Chocking Tabs

(ver. 1) Click to play this song!
My Vitriol
 Rating:
4/5 (4 votes)

 The Gentle Art Of Chocking lessons Tabs too difficult? Try these video lessons and learn fast
 
                intro
e|-------------14---14----14----14------------|
B|-14---12-11----11----11----11---11----------|
G|--------------------------------------------|
D|--------------------------------------------|
A|--------------------------------------------|
E|--------------------------------------------|

Verse(it's not completley good but it sounds wel)
e|------------------------------------------------|
B|-----6--------6--------6-----4--------2--------2|
G|--------3--------3--------------3--------3------|
D|--4--------4--------4-----4--------4--------4---|
A|------------------------------------------------|
E|------------------------------------------------|

|------------------------------------------------|
|-----6--------6--------6-----4--------2--------2|
|--------3--------3--------------3--------3------|
|--4--------4--------4-----4--------4--------4---|
|------------------------------------------------|
|------------------------------------------------|

|------------------------------------------------|
|-----2--------2--------2-----4--------4--------4|
|--------3--------3--------------4--------4------|
|--3--------3--------3-----3--------3--------3---|
|------------------------------------------------|
|------------------------------------------------|

|------------------------------------------------|
|-----2--------2--------2-----4--------4--------4|
|--------3--------3--------------4--------4------|
|--3--------3--------3-----3--------3--------3---|
|------------------------------------------------|
|------------------------------------------------|

Guitar 2
|--------------------------------------------|
|--------------------------------------------|
|--------------------------------------------|
|-8-8-8-8-8-6-6-6-6-6------------------------|
|-8-8-8-8-8-6-6-6-6-6------------------------|
|-6-6-6-6-6-4-4-4-4-4------------------------|2x

|--------------------------------------------|
|--------------------------------------------|
|-----------4-4-4-4-4------------------------|
|-4-4-4-4-4-4-4-4-4-4------------------------|
|-4-4-4-4-4-2-2-2-2-2------------------------|
|-2-2-2-2-2----------------------------------|

Prechorus
|--------------------------------------------|
|--------------------------------------------|
|--------------------------------------------|
|-4-4-4-4-4-4-4-4-4-4-4----------------------|
|-4-4-4-4-4-4-4-4-4-4-4----------------------|
|-2-2-2-2-2-2-1-1-1-1-1----------------------|

chorus
|--------------------------------------------|
|--------------------------------------------|
|-4-4-4-4-4-4-4------------------------------|
|-4-4-4-4-4-4-4-6-6-6-6-6-6-6----------------|
|-2-2-2-2-2-2-2-6-6-6-6-6-6-6----------------|
|---------------4-4-4-4-4-4-4----------------|

|--------------------------------------------|
|--------------------------------------------|
|-4-4-4-4-4-4-4-4-4-4-4-4-4-4----------------|
|-4-4-4-4-4-4-4-4-4-4-4-4-4-4----------------|
|-2-2-2-2-2-2-2-2-2-2-2-2-2-2----------------|
|--------------------------------------------|
repeat prechorus
            
Submit corrections


        The Gentle Art Of Chocking lessons Hard to play? Try these video lessons and learn fast The Gentle Art Of Chocking lessons
        
↑ Back to top | Tablatures and chords for acoustic guitar and electric guitar, ukulele, drums are parodies/interpretations of the original songs. You may use it for private study, scholarship, research or language learning purposes only