Home » M » My Vitriol »

My Vitriol - Taprobane Tabs

Artists:  A B C D E F G H I J K L M N O P Q R S T U V W X Y Z # 

Taprobane Tabs

(ver. 1) Click to play this song!
My Vitriol
 Rating:
4/5 (4 votes)
                My Vitriol

Rhythm guitar part 1
drop D, capo at fret 1. Use chorus and plenty of reverb

e|--------------------------------------
B|--------------------------------------
G|---------0--0--0--0--0--0--0---0------
D|------10------12----12----10--10------
A|---0----------------------------------
D|--10----------------------------------

heres an alternate way, easier but you dont get quite the right sound on the very first note. With the above method you will though.

alternate method, standard tuning, capo fret 1

e|--------------------------------------
B|------1--------3-----3-----1--1-------
G|---------0--0--0--0--0--0--0--0-------
D|---2----------------------------------
A|---0----------------------------------
E|--------------------------------------

next bit; part 2

e|------------------------------------------------------------------------
B|------------------------------------------------------------------------
G|------------------------------------------------------------------------
D|---3-3-3-3-3-3-3-3-3/5-5-5-5-5-5-5-5\3-3-3-3-3-3-3-3-3/5-5-5-5-5-5-4-4--
A|---5-5-5-5-5-5-5-5-5/7-7-7-7-7-7-7-7\5-5-5-5-5-5-5-5-5/7-7-7-7-7-7-6-6--
E|------------------------------------------------------------------------


Lead Parts
use a tiny bit of distortion to get a nice creamy lead sound.

this part is played over part A for the rhythm
lead guitar:
e|-----------------------------------------
B|---8~~~~------------------5--------------
G|-----------7~~~~~~----5-4---4---5\2~~~~~-
D|-----------------------------------------
A|-----------------------------------------
E|-----------------------------------------

this part played over rhythm part 2 then 1
 part 2               part 1                  
e|----------------------------------------------0----
B|--8-8~~~~~---------------5----------------1-0---1--
G|-----------7~~~~~\6--5-4---4--5\2~~~~~--2----------
D|---------------------------------------------------
A|---------------------------------------------------
E|---------------------------------------------------

 part 2
e|-------------------------------------
B|-8-8~~~~~\10~~---10-(bit of pitch bending goes on here - dont ask me bout it:))
G|---------------9---------------------
D|-------------------------------------
A|-------------------------------------
E|-------------------------------------

  part 1
e|--------------------------------------
B|------5-------------------------------
G|--5-4---4--5\2~~~~--------------------
D|---------------------10\5~~~~~--------
A|--------------------------------------
E|--------------------------------------

ta.
            
Submit corrections

↑ Back to top | Tablatures and chords for acoustic guitar and electric guitar, ukulele, drums are parodies/interpretations of the original songs. You may use it for private study, scholarship, research or language learning purposes only