» » »

My Vitriol - Pieces Tabs

Artists:  A B C D E F G H I J K L M N O P Q R S T U V W X Y Z # 

Pieces Tabs

(ver. 1) Click to play this song!
My Vitriol
 Rating:
4/5 (4 votes)

 Pieces lessons Tabs too difficult? Try these video lessons and learn fast
 
                Tuning: standard
Intro Guitar 1                              
E|--------------------|
B|--------------------|
G|--5--5--5--5--5--5--|
D|--5--5--5--5--5--5--|
A|--3--3--3--3--3--3--|
E|--------------------|
     Intro Guitar 1                                                      
E---3--3--2--2--3--3--2--2--------|
B---3--3--3--3--3--3--3--3--1--1--|
G---0--0--4--4--0--0--4--4--3--3--|
D---0--0--4--4--0--0--4--4--3--3--|
A---2--2--2--2--2--2--2--2--1--1--|
E---3--3--------3--3--------------|
     Chorus Guitar1                                                      
E---3--3--2--2----------------------3--3--2--2--------------------------
B---3--3--3--3-----0---------0------3--3--3--3-----0---------0----------
G---0--0--2--2--2--4^5----0--4^5----0--0--2--2--2--4^5----0--4^5--------
D---0--0--0--0--2---------2---------0--0--0--0--2---------2-------------
A---2--2--------0---------3---------2--2--------0---------3-------------
E---3--3----------------------------3--3--------------------------------
     Chorus Guitar1                                                      
E------------------------0-----------------------|
B---------1-----------0-----1-----------1--------|
G------------------------------0-----------------|
D------2-----------2-----------------2-----------|
A---0--------0--3-----------------0--------0--3--|
E------------------------------------------------|
        Verse Guitar 1                    
e|3--3--2--2--3--3--2--2--|
B|3--3--3--3--3--3--3--3--|
G|0--0--4--4--0--0--4--4--|
D|0--0--4--4--0--0--4--4--|
A|2--2--2--2--2--2--2--2--|
E|3--3--------3--3--------|
                             
E------------------------|
B---1--1--1--3--1--1--4--|
G---2--2--0--0--2--2--5--|
D---2--2--2--2--2--2--5--|
A---0--0--3--3--0--0--3--|
E------------------------|
     Outro Guitar 1                                                      
E---3--3--2--2--3--3--2--2---------------------------|
B---3--3--3--3--3--3--3--3-----------------------0---|
G---0--0--4--4--0--0--4--4--5--5--5--5--5--5--2--4^--|
D---0--0--4--4--0--0--4--4--5--5--5--5--5--5--2------|
A---2--2--2--2--2--2--2--2--3--3--3--3--3--3--0------|
E---3--3--------3--3---------------------------------|
Guitar 2 
 Intro Guitar 2 Lead                                                 
E-----------------------------------------------------------------------
B---13-------12-------7-------13-------12-------7-------10--------------
G---15^17----14^16----9^11----15^17----14^16----9^11----12^14----12-----
D-----------------------------------------------------------------------
A-----------------------------------------------------------------------
E-----------------------------------------------------------------------
   Chorus Guitar 2 Lead                      Chorus Guitar 2 Lead      
E-----------------------------------------------------------------------
B---(12)------------(12)--(12)----------------(12)--(12)----------------
G---------(12)------------------(12)----------------------(12)----------
D---------------14--------------------14--12--------------------14------
A-----------------------------------------------------------------------
E-----------------------------------------------------------------------
 
E--------------------------------|
B---(12)--(12)-------------------|
G---------------(12)-------------|
D---------------------14--14\\12-|
A--------------------------------|
E--------------------------------|

E-----------------------------------------------------------------------
B---------------7-------------------7----------------7-------5----------
G---------------9^11----------------9^11-------------9^11----7^9--------
D-----------------------------------------------------------------------
A-----------------------------------------------------------------------
E-----------------------------------------------------------------------

E------------------------------------------------|
B---8--------10----------7-------5------8--------|
G---10^12----12^14-------9^11----7^9----10^12----|
D------------------------------------------------|
A------------------------------------------------|
E------------------------------------------------|

This is a long song so i included a extra tab for guitar 2 There's no way to combine these them.
            
Submit corrections


        Pieces lessons Hard to play? Try these video lessons and learn fast Pieces lessons
        
↑ Back to top | Tablatures and chords for acoustic guitar and electric guitar, ukulele, drums are parodies/interpretations of the original songs. You may use it for private study, scholarship, research or language learning purposes only