» » »

My Vitriol - Moodswings Tabs

Artists:  A B C D E F G H I J K L M N O P Q R S T U V W X Y Z # 

Moodswings Tabs

(ver. 1) Click to play this song!
My Vitriol
 Rating:
4/5 (4 votes)

 Moodswings lessons Tabs too difficult? Try these video lessons and learn fast
 
                Written by Som Wardner – Copyright Control.

Vocals/Guitar: Som Wardner
Guitar: Seth Taylor
Bass: Carolyn Bannister
Drums: Ravi Kesavaram


I haven't seen any tabs to this cracking song so 
I thought i'd give it ago - this is my first ever 
tab and i'm not guaranteeing it's 100% accurate 
the way that the band play it, but this is the 
way I do it. They're pretty much renowned for 
having weird tuning (uptuned/downtuned/effects
pedals/capos-a-plenty) so don't blame me if you 
see them doing it totally different - it sounds 
as close to the record as I can get! 


Tuning: Tune all the strings half a step down, 
then tune the low E string another half step down.

h	hammer
^	slight bend
b	bend

Intro:
E|-------------------------------------------------------------------|
B|-------------------------------------------------------------------|
G|-------------------------------------------------------------------|
D|-----4---4-----4---4----------------4---4-----4---4----------------|
A|-0----------0---------0-0-2b3----0---------0---------0-0-2h3h2-----|
E|-0----------0---------0-0-2b3----0---------0---------0-0-2h3h2-----|


After drums come in:

E|-------------------------------------------------------------------|
B|-------------------------------------------------------------------|
G|--7-7-7-6(x8)---7-7-7-6(x4)-4h6h4---0-0-0-2^(x8)---0-0-0-2^(x8)----|
D|----------------------------------4---------------4----------------|
A|-5------------5----------------------------------------------------|
E|-------------------------------------------------------------------| x2


Bridge:                       
E|-----------------------------|
B|-----------------------------|
G|-----------------------------|
D|-0-0--4--4--0-0--4--0--2b3---|
A|-0-0--------0-0-----0--2b3---|
E|-0-0--------0-0-----0--2b3-x4|

Verse:

‘You’re breaking down inside…’
E|------------------------------------------------------------------|
B|------------------------------------------------------------------|
G|-7-7-7-7-7-7-7-7-7-7-7-7-7-7-7-7-7-7-7-7-7-7-7-7-7-7-7-7-7-7-7-7--|
D|-7-7-7-7-7-7-7-7-7-7-7-7-7-7-7-7-7-7-7-7-7-7-7-7-7-7-7-7-7-7-7-7--|
A|-5-5-5-5-5-5-5-5-5-5-5-5-5-5-5-5-5-5-5-5-5-5-5-5-5-5-5-5-5-5-5-5--|
E|-0-0-0-0-0-0-0-0-0-0-0-0-0-0-0-0-0-0-0-0-0-0-0-0-0-0-0-0-0-0-0-0--|

E|------------------------------------------------------------------|
B|------------------------------------------------------------------|
G|------------------------------------------------------------------|
D|-4-4-4-4-4-4-4----------------------------------------------------|
A|---------------5-5-5-5-5-5-5-5------------------------------------|
E|---------------5-5-5-5-5-5-5-5(x2)--------------------------------| 

x2

Chorus:                                                              

‘Spring time pulls you away…’
E|------------------------------------------------------------------|
B|------------------------------------------------------------------|
G|---------------------------------------4b-----4b-----4b-----4b----|
D|-3-3-3-3-3-3-3-3-3-3-3-3-3-3-3-3-|--------------------------------|
A|-3-3-3-3-3-3-3-3-3-3-3-3-3-3-3-3-|-3-3----3-3----3-3----3-3-------|
E|-3-3-3-3-3-3-3-3-3-3-3-3-3-3-3-3-|--------------------------------|

(Second time play 	D|-2-2-2-2-2-2-2-2  at the end)
			A|-2-2-2-2-2-2-2-2
			E|-2-2-2-2-2-2-2-2
x2


E|------5----0-5-----5----------------------------------------------|
B|----3------2-----3---2--0h2p0-------------------------------------|
G|-----------------------------------0-0-0-2^(x8)-----0-0-0-2^(x8)--|
D|-0------0------0---------------4-4--------------4-4---------------|
A|------------------------------------------------------------------|
E|------------------------------------------------------------------|

                                            
Verse:

‘They’re trying to tell you…’                                      
E|------------------------------------------------------------------|
B|------------------------------------------------------------------|
G|-7-7-7-7-7-7-7-7-7-7-7-7-7-7-7-7-7-7-7-7-7-7-7-7-7-7-7-7-7-7-7-7--|
D|-7-7-7-7-7-7-7-7-7-7-7-7-7-7-7-7-7-7-7-7-7-7-7-7-7-7-7-7-7-7-7-7--|
A|-5-5-5-5-5-5-5-5-5-5-5-5-5-5-5-5-5-5-5-5-5-5-5-5-5-5-5-5-5-5-5-5--|
E|-0-0-0-0-0-0-0-0-0-0-0-0-0-0-0-0-0-0-0-0-0-0-0-0-0-0-0-0-0-0-0-0--|

E|------------------------------------------------------------------|
B|------------------------------------------------------------------|
G|------------------------------------------------------------------|
D|-4-4-4-4-4-4-4----------------------------------------------------|
A|---------------5-5-5-5-5-5-5-5------------------------------------|
E|---------------5-5-5-5-5-5-5-5------------------------------------| (x2)

x2

Chorus:
                                                              
‘Your conscience nags you again…’
E|------------------------------------------------------------------|
B|------------------------------------------------------------------|
G|---------------------------------------4b-----4b-----4b-----4b----|
D|-3-3-3-3-3-3-3-3-3-3-3-3-3-3-3-3-|--------------------------------|
A|-3-3-3-3-3-3-3-3-3-3-3-3-3-3-3-3-|-3-3----3-3----3-3----3-3-------|
E|-3-3-3-3-3-3-3-3-3-3-3-3-3-3-3-3-|--------------------------------| x2

(Second time play 	B|-8-8-8 at the end)  
		    	G|-0-0-0

x2 (on second time don’t play the above addition, go straight into below section)
			
			                    
E|-------------------------|-------------------------|
B|----5b----5b----5b----5b-|----3b----3b----3b----3b-|
G|-------------------------|----0-----0-----0-----0--|
D|-3-3---3-3---3-3---3-3---|-------------------------|
A|-3-3---3-3---3-3---3-3---|-3-3---3-3---3-3---3-3---|
E|-3-3---3-3---3-3---3-3---|-------------------------| x4

				x3
E|------------------------------|--------------------------|
B|------0-0-0-0----5-----5------|-----0---0-----0---0----0-|
G|-5/7--7-7-7-7--5---5-5---5----|-0-0---0---0-1---1---1----|
D|------------------------------|--------------------------|
A|------------------------------|--------------------------|
E|------------------------------|--------------------------|

x2

‘Spring time drags you away…’
E|------------------------------------------------------------------|
B|------------------------------------------------------------------|
G|---------------------------------------4b-----4b-----4b-----4b----|
D|-3-3-3-3-3-3-3-3-3-3-3-3-3-3-3-3-|--------------------------------|
A|-3-3-3-3-3-3-3-3-3-3-3-3-3-3-3-3-|-3-3----3-3----3-3----3-3-------|
E|-3-3-3-3-3-3-3-3-3-3-3-3-3-3-3-3-|--------------------------------| x2

(Second time play 	D|-2-2-2  	B|-8-8-8-8  at the end)  
		    	A|-2-2-2	G|-0-0-0-0
			E|-2-2-2

E|------------------------------------------------------------------|
B|------------------------------------------------------------------|
G|---------------------------------------4b-----4b-----4b-----4b----|
D|-3-3-3-3-3-3-3-3-3-3-3-3-3-3-3-3-|--------------------------------|
A|-3-3-3-3-3-3-3-3-3-3-3-3-3-3-3-3-|-3-3----3-3----3-3----3-3-------|
E|-3-3-3-3-3-3-3-3-3-3-3-3-3-3-3-3-|--------------------------------| x2

(Second time play 	D|-2-2-2-2-2-2-2-2  at the end)
			A|-2-2-2-2-2-2-2-2
			E|-2-2-2-2-2-2-2-2
                       
*This next bit involves random scratching and harmonics – just lightly hold your fingers over the strings around the fifteenth fret then slide down to the fourth fret*

Outro: 

‘Aaaaaaaaaaaaaaaaaaaaaaaaaaaaaaaaaaaaaaah’
 			     x11                
E|-----------------------------|-----------
B|-----------------------------|-----------
G|-----------------------------|-----------
D|-0-0--4--4--0--0--4--0-2b3---|-0-2-1-0-0-
A|-0-0--------0--0--4--0-2b3---|-0-2-1-0-0-
E|-0-0--------0--0-----0-2b3---|-0-2-1-0-0-


END
            
Submit corrections


        Moodswings lessons Hard to play? Try these video lessons and learn fast Moodswings lessons
        
↑ Back to top | Tablatures and chords for acoustic guitar and electric guitar, ukulele, drums are parodies/interpretations of the original songs. You may use it for private study, scholarship, research or language learning purposes only