Home » M » My Vitriol »

My Vitriol - Game Of Pricks Tabs

Artists:  A B C D E F G H I J K L M N O P Q R S T U V W X Y Z # 

Game Of Pricks Tabs

(ver. 1) Click to play this song!
My Vitriol
 Rating:
4/5 (4 votes)
                Tuning: Standard

Intro
|------------------------------------------------------------|
|------------------------------------------------------------|
|-13-13-13-13-13-13-13-13------------14-14-14-14-14-14-14-14-|
|------------------------11-11-11-11-------------------------|
|------------------------------------------------------------|
|------------------------------------------------------------|

there's not much guitar in the verse

Chorus
|-0-0-0-0-0-0-0-0-0-0-0-0-0-0-0---------------------------------|
|-0-0-0-0-0-0-0-0-0-0-0-0-0-0-0---------------------------------|
|-2-2-2-2-2-2-2-2-2-2-2-2-2-2-2-7-7-7-7-7-7-7-7-7-7-7-7-7-7-7-7-|
|-2-2-2-2-2-2-2-2-2-2-2-2-2-2-2-7-7-7-7-7-7-7-7-7-7-7-7-7-7-7-7-|
|-0-0-0-0-0-0-0-0-0-0-0-0-0-0-0-5-5-5-5-5-5-5-5-5-5-5-5-5-5-5-5-|
|---------------------------------------------------------------|

|---------------------------------|
|---------------------------------|
|---------------------------------|
|-7-7-6-6-4-4-6-6-7-7-7-7-7-7-7-7-|
|-7-7-6-6-4-4-6-6-7-7-7-7-7-7-7-7-|
|-5-5-4-4-2-2-4-4-5-5-5-5-5-5-5-5-|

for the end just repeat the second part of the chorus a couple of times
            
Submit corrections

↑ Back to top | Tablatures and chords for acoustic guitar and electric guitar, ukulele, drums are parodies/interpretations of the original songs. You may use it for private study, scholarship, research or language learning purposes only