» » »

My Vitriol - Another Lie Tabs

Artists:  A B C D E F G H I J K L M N O P Q R S T U V W X Y Z # 

Another Lie Tabs

(ver. 1) Click to play this song!
My Vitriol
 Rating:
4/5 (4 votes)

 Another Lie lessons Tabs too difficult? Try these video lessons and learn fast
 
                Tuning: Standard
Intro/Verse
|-------------0-0-0-0-0-0-1-1-1-1-1-1-1-1-1-1-|
|-------------1-1-1-1-1-1-3-3-3-3-3-3-3-3-3-3-|
|-2-2-2-2-2-2-2-2-2-2-2-2-3-3-3-3-3^3-3-3-3-3-|
|-3-3-3-3-3-3-2-2-2-2-2-2-3-3-3-3-3^3-3-3-3-3-|
|-3-3-3-3-3-3-0-0-0-0-0-0-1-1-1-1-1-1-1-1-1-1-|
|-1-1-1-1-1-1-------------1-1-1-1-1-1-1-1-1-1-|

Pre-Chorus
|-0-0-0-0-0-0-0-0-0-0-0-0-0-0------------|
|-2-2-2-2-2-2-2-2-2-2-2-2-2-2------------|
|-2-2-2-2-2-2-2-2-2-2-2-2-2-2------------|
|-2-2-2-2-2-2-2-2-2-2-2-2-2-2------------|
|-0-0-0-0-0-0-0-0-0-0-0-0-0-0------------|
|----------------------------------------|
Chorus
|----------------------------------------------|
|-------1-1-1-1-------1-1-1-1-1-1-1-1-3-3-3----|
|-2-2-2-0-0-0-0-2-2-2-0-0-0-0-2-2-2-2-3-3-3----|
|-3-3-3-2-2-2-2-3-3-3-2-2-2-2-2-2-2-2-3-3-3----|
|-3-3-3-3-3-3-3-3-3-3-3-3-3-3---------1-1-1----|
|-1-1-1---------1-1-1--------------------------|

Outro
|----------------------------------------|
|-----1-1-1-1-3-3-3----------------------|
|-2-2-0-0-2-2-3-3-3----------------------|
|-3-3-2-2-2-2-3-3-3----------------------|
|-3-3-3-3-0-0-1-1-1----------------------|
|-1-1------------------------------------|
            
Submit corrections


        Another Lie lessons Hard to play? Try these video lessons and learn fast Another Lie lessons
        
↑ Back to top | Tablatures and chords for acoustic guitar and electric guitar, ukulele, drums are parodies/interpretations of the original songs. You may use it for private study, scholarship, research or language learning purposes only