» » »

Myslovitz - Znow Wszystko Poszlo Nie Tak Bass

Artists:  A B C D E F G H I J K L M N O P Q R S T U V W X Y Z # 

Znow Wszystko Poszlo Nie Tak Bass

(ver. 1) Click to play this song!
Myslovitz
 Rating:
4/5 (4 votes)
    Znow Wszystko Poszlo Nie Tak lessons Tabs too difficult? Try these video lessons and learn fast
                -------------------------------------------------------------------------------
-------------------------------------------------------------------------------


Tuning: Standard

Verse (x8):
G|----------------------------------------------------------------|
D|----------------------------------------------------------------|
A|----------------------------------------------------------------|
E|2-2-2-2-2-2-2-2-2-2-2-2-2-2-2-2-0-0-0-0-0-0-0-0-3-3-3-3-3-3-3-3-|


Chorus:
G|----------------------------------------------------------------|
D|----------------------------------------------------------------|
A|5-5-5-5-5-5-5-5-------------------------------------------------|
E|----------------7-7-7-7-7-7-7-7-2-2-2-2-2-2-2-2-3-3-3-3-3-3-3-3-|

G|----------------------------------------------------------------|
D|----------------------------------------------------------------|
A|5-5-5-5-5-5-5-5-------------------------------------------------|
E|----------------7-7-7-7-7-7-7-7-2-2-2-2-2-2-2-2-3-3-3-3-3-3-3-3-|

G|----------------------------------------------------------------|
D|----------------------------------------------------------------|
A|7-7-7-7-7-7-7-7-7-7-7-7-7-5-5-5---------------------------------|
E|--------------------------------3-3-3-3-3-3-3-3-3-3-3-3-3-3-3-3-|

G|----------------------------------------------------------------|
D|--------------------------------2-2-2-2-2-2-2-2-----------------|
A|2-2-2-2-2-2-2-2-2-2-2-2-2-2-2-2---------------------------------|
E|------------------------------------------------3-3-3-3-3-3-3-3-|

G|----------------------------------------------------------------|
D|--------------------------------2-2-2-2-2-2-2-2-----------------|
A|2-2-2-2-2-2-2-2-2-2-2-2-2-2-2-2---------------------------------|
E|------------------------------------------------3-3-3-3-3-3-3-3-|


[Verse]

[Chorus]


| /  slide up
| \  slide down
| h  hammer-on
| p  pull-off
| ~  vibrato
| +  harmonic
| x  Mute note
===============================================================================
            
Submit corrections

↑ Back to top | Tablatures and chords for acoustic guitar and electric guitar, ukulele, drums are parodies/interpretations of the original songs. You may use it for private study, scholarship, research or language learning purposes only