» » »

My Sleeping Karma - Tamas Tabs

Artists:  A B C D E F G H I J K L M N O P Q R S T U V W X Y Z # 

Tamas Tabs

(ver. 1) Click to play this song!
My Sleeping Karma
 Rating:
4.4/5 (14 votes)

 Tamas lessons Tabs too difficult? Try these video lessons and learn fast
 
                1st part
e|---------------------------------------------------------------------------|
B|---------------------------------------------------------------------------|
G|------------------12----------15---14---12---14----7----------7--10--------|
D|-0-000-00-00-0000----000-00-0----0----0----0----00---00-00-00-------000----|
A|---------------------------------------------------------------------------|
E|---------------------------------------------------------------------------|

e|---------------------------------------------------------------------------| *The first time its 7/12, all
B|---------------------------------------------------------------------------| the rest its just 12 or just  
G|------7---9---10---7-------------------------------------------------------|the open strings to change parts
D|-00-0---0---0----0---000-00-00-00-7/12*------------------------------------|
A|---------------------------------------------------------------------------| Listen to the song to see how 
E|---------------------------------------------------------------------------| many times to play this part

2nd part
e|---------------------------------------------------------------------------|
B|---------------------------------------------------------------------------|
G|-------10---7-9-7-5-----10---7-9-7-5-7---10---7-9-7-5------5-7-10-9-7------| Again, listen to the song to
D|-00000----0-----------0----0-----------0----0----------5-7-----------------| know how many times to play it
A|---------------------------------------------------------------------------|
E|---------------------------------------------------------------------------|

Play 1st part again after 2nd then the 3rd part below

3rd part
e|---------------------------------------------------------------------------|
B|---------------------------------------------------------------------------|
G|----------7-7-77-10-10-10-9-10-9-5-5-55-12-12-12-14-12-14------------------| Listen song the repetition 
D|-00000000--0-0--0--0--0---------0-0-0--0--0--0-----------------------------| number
A|---------------------------------------------------------------------------|
E|---------------------------------------------------------------------------|
  
First part again but with Gain/Drive to finish the song            
Submit corrections


        Tamas lessons Hard to play? Try these video lessons and learn fast Tamas lessons
        
↑ Back to top | Tablatures and chords for acoustic guitar and electric guitar, ukulele, drums are parodies/interpretations of the original songs. You may use it for private study, scholarship, research or language learning purposes only