Home » M » My Bloody Valentine »

My Bloody Valentine - When You Sleep Acoustic Tabs

Artists:  A B C D E F G H I J K L M N O P Q R S T U V W X Y Z # 

When You Sleep Acoustic Tabs

(ver. 3) Click to play this song!
My Bloody Valentine
[Intro]

Gb|------------------------------------------------|--------------------------------------------------|
Db|------------------------------------------------|--------------------------------------------------|
A |------------------------------------------------|--------------------------------------------------|
D |--------4-----------4-----------4-----------4---|--------4-----------4-----------4-----------4-----|
A |------------------------------------------------|--------------------------------------------------|
D |--4-----------4-----------4-----------4---------|--4-----------4-----------4-----------4-----------|


[Verse]

Gb|------------------------------------------------|--------------------------------------------------|
Db|--------0-----------------0--------------0------|--------0-----------------0--------------0--------|
A |--------0--------0-----0-----------0-----------0|--------0--------0-----0-----------0-----------0--| 
D |--------4-----------4-----------4-----------4---|--------4-----------4-----------4-----------4-----|  x2
A |------------------------------------------------|--------------------------------------------------|
D |--4-----------4-----------4-----------4---------|--4-----------4-----------4-----------4-----------|

Gb|------------------------------------------------|--------------------------------------------------|
Db|--------0-----------------3--------------3------|--------3-----------------3--------------0--------|
A |--------0--------0-----0-----------0-----------0|--------0--------0-----0-----------0-----------0--|
D |--------4-----------4-----------4-----------4---|--------4-----------4-----------4-----------4-----|
A |------------------------------------------------|--------------------------------------------------|
D |--0-----------0-----------0-----------0---------|--0-----------0-----------0-----------0-----------|

Gb|------------------------------------------------|--------------------------------------------------|
Db|--------0-----------------0--------------0------|--------0-----------------0--------------0--------|
A |--------0--------0-----0-----------0-----------0|--------0--------0-----0-----------0-----------0--| 
D |--------4-----------4-----------4-----------4---|--------4-----------4-----------4-----------4-----|
A |------------------------------------------------|--------------------------------------------------|
D |--4-----------4-----------4-----------4---------|--4-----------4-----------4-----------4-----------|

Gb|------------------------------------------------|-----------------------------------2--------------|
Db|--------0-----------------3--------------0------|-----------0-----------3--------------------------|
A |--------0--------0-----0-----------0-----------0|--------0--------0-----------0-----------0-----0--|
D |--------4-----------4-----------4-----------4---|--2h4---------------4-----------4-----------4-----|
A |------------------------------------------------|--------------------------------------------------|
D |--0-----------0-----------0-----------0---------|--0-----------0-----------0-----------0-----------|

Gb|------------------------------------------------|--------------------------------------------------|
Db|--------0-----3--0-----5-----0-----------------0|--------0-----------------0--------------0--------|
A |--------0--------------------------5-----3------|--------0--------0-----0-----------0-----------0--|
D |--------4-----------4-----------4-----------4---|--------4-----------4-----------4-----------4-----|
A |------------------------------------------------|--------------------------------------------------|
D |--4-----------4-----------4-----------4---------|--4-----------4-----------4-----------4-----------|

Gb|------------------------------------------------|--------------------------1-----------2-----0-----|
Db|-----------0--------------3--------------0------|--------0-----------------2-----------2-----0-----|
A |--------0--------0-----------------3-----------0|--------0--------0-----0--------------------------|
D |--2h4---------------4-----------4-----------4---|--------4-----------4-----------0-----------0-----|
A |------------------------------------------------|--------------------------------------------------|
D |--0-----------0-----------0-----------0---------|--0-----------0-----------0-----------0-----------|

Gb|-----------------------------------0------------|--------------------------------------------------|
Db|--------3-----------------3--------------3------|--5--------3----(3)----------------------0--------|
A |--------0--------0-----0-----------------------0|--------------------------5--------3--------------|
D |--------4-----------4-----------4-----------4---|--------4-----------4-----------4-----------4-----|
A |------------------------------------------------|--------------------------------------------------|
D |--4-----------4-----------4-----------4---------|--4-----------4-----------4-----------4-----------|

Gb|--2-----3--2------------------------------------|--0-----------------------1-----------2-----0-----|
Db|-----------------0--------0-----1--0------------|-----3-----0--------------2-----------2-----0-----|
A |-----------------------------------------0------|-----------------0--------------------------------|
D |--------0-----------0-----------0-----------0---|--------0-----------0-----------0-----------0-----|
A |------------------------------------------------|--------------------------------------------------|
D |--0-----------0-----------0-----------0---------|--0-----------0-----------0-----------0-----------|

Gb|------------------------------------------------|--------------------------------------------------|
Db|--------0-----------------0--------------0------|--------0-----------------0--------------0--------|
A |--------0--------0-----0-----------0-----------0|--------0--------0-----0-----------0-----------0--| 
D |--------4-----------4-----------4-----------4---|--------4-----------4-----------4-----------4-----|  x2
A |------------------------------------------------|--------------------------------------------------|
D |--4-----------4-----------4-----------4---------|--4-----------4-----------4-----------4-----------|


[Pre-Chorus]

Gb|--0-----------------------2--------------2------|--3--------------3--------5--------------5--------|
Db|-----------------------------------3------------|-----------3-----------------------3-----------3--|
A |------------------------------------------------|--------------------------------------------------|
D |--------0-----------0-----------0-----------0---|--------0-----------0-----------0-----------0-----|
A |------------------------------------------------|--------------------------------------------------|
D |--0-----------0-----------0-----------0---------|--0-----------0-----------0-----------0-----------|


[Chorus]

Gb|--2-----3--2------------------------------------|--0-----------------------------------------------|
Db|-----------------3--------0-----1--0------------|-----3-----0--------------0-----------------------|
A |-----------------------------------------0------|-----------------0--------------------2-----------|
D |--------2-----------2-----------0-----------0---|--------0-----------0-----------0-----------0-----|
A |--0-----------0-----------2-----------2---------|--------------------------------------------------|
D |------------------------------------------------|--0-----------0-----------0-----------0-----------|

Gb|--2-----3--2------------------------------------|--0-----------------------------------------------|
Db|-----------------3--------0-----1--0------------|-----3-----0--------------0-----------------------|
A |-----------------------------------------0------|-----------------0--------------------------------|
D |--------2-----------2-----------0-----------0---|--------0-----------0-----------0-----------0-----|
A |--0-----------0-----------2-----------2---------|--------------------------------------------------|
D |------------------------------------------------|--0-----------0-----------0-----------0-----------|

Gb|--------0--------------0------------------------|--------------------------------------------------|
Db|--------3--------3--------3-----1--0-----1------|--------0--------------0--3--------0-----------0--|
A |--------0---------------------------------------|--------0--------0-----------5-----------2--------|
D |--------2-----------2-----------2-----------2---|--------4-----------4-----------4-----------4-----|
A |--0-----0-----0-----------0-----------0---------|--------------------------------------------------|
D |------------------------------------------------|--4-----------4-----------4-----------4-----------|

Gb|------------------------------------------------|--------------------------2-----------3-----------|
Db|--------------------------0--------------0------|--------0--------------0--------------------------|
A |-----------------------------------2------------|--------0--------0--------------------------------|
D |--------2-----------2-----------2-----------2---|--------4-----------4-----------4-----------4-----|
A |--0-----------0-----------0-----------0---------|--------------------------------------------------|
D |------------------------------------------------|--4-----------4-----------4-----------4-----------|

Gb|-----------------------0------------------------|--------3-----------------------------------------|
Db|--------3--------3--------3-----1--0-----1------|--------3--------3-----3--3--------0-----3--------|
A |------------------------------------------------|--------0-----------------------------------------|
D |--------2-----------2-----------2-----------2---|--------4-----------4-----------4-----------4-----|
A |--0-----------0-----------0-----------0---------|--------------------------------------------------|
D |------------------------------------------------|--4-----------4-----------4-----------4-----------|

Gb|--0---------------------------------------------|--------------------------------------------------|
Db|--0-----------------------0--------------0------|--------0--------------0-----------0--------------|
A |-----------------------------------2------------|--------0--------0--------2--------------0--------|
D |--------0-----------0-----------0-----------0---|--------4-----------4-----------4-----------4-----|
A |------------------------------------------------|--2-----2-----2-----------2-----------2-----------|
D |--0-----------0-----------0-----------0---------|--------------------------------------------------|

Gb|--------------------------2--------------------|
Db|--------------------------3--------------------|
A |--------------------------0--------------------|
D |--------2-----------2-----2--------------------|      
A |--------------------------0--------------------|
D |--2-----------2-----------2--------------------|

Gb|--2-----3--2------------------------------------|--0-----------------------------------------------|
Db|-----------------3--------0-----1--0------------|-----3-----0--------------0-----------------------|
A |-----------------------------------------0------|-----------------0--------------------2-----------|
D |--------2-----------2-----------0-----------0---|--------0-----------0-----------0-----------0-----|
A |--0-----------0-----------2-----------2---------|--------------------------------------------------|
D |------------------------------------------------|--0-----------0-----------0-----------0-----------|

Gb|--2-----3--2------------------------------------|--0-----------------------------------------------|
Db|-----------------3--------0-----1--0------------|-----3-----0--------------0-----------------------|
A |-----------------------------------------0------|-----------------0--------------------------------|
D |--------2-----------2-----------0-----------0---|--------0-----------0-----------0-----------0-----|
A |--0-----------0-----------2-----------2---------|--------------------------------------------------|
D |------------------------------------------------|--0-----------0-----------0-----------0-----------|

Gb|--------0--------------0------------------------|--------------------------------------------------|
Db|--------3--------3--------3-----1--0-----1------|--------0--------------0--3--------0-----------0--|
A |--------0---------------------------------------|--------0--------0-----------5-----------2--------|
D |--------2-----------2-----------2-----------2---|--------4-----------4-----------4-----------4-----|
A |--0-----0-----0-----------0-----------0---------|--------------------------------------------------|
D |------------------------------------------------|--4-----------4-----------4-----------4-----------|

Gb|------------------------------------------------|--------------------------2-----------3-----------|
Db|--------------------------0--------------0------|--------0--------------0--------------------------|
A |-----------------------------------2------------|--------0--------0--------------------------------|
D |--------2-----------2-----------2-----------2---|--------4-----------4-----------4-----------4-----|
A |--0-----------0-----------0-----------0---------|--------------------------------------------------|
D |------------------------------------------------|--4-----------4-----------4-----------4-----------|

Gb|-----------------------0------------------------|--------3-----------------------------------------|
Db|--------3--------3--------3-----1--0-----1------|--------3--------3-----3--3--------0-----3--------|
A |------------------------------------------------|--------0-----------------------------------------|
D |--------2-----------2-----------2-----------2---|--------4-----------4-----------4-----------4-----|
A |--0-----------0-----------0-----------0---------|--------------------------------------------------|
D |------------------------------------------------|--4-----------4-----------4-----------4-----------|

Gb|--0---------------------------------------------|--------------------------------------------------|
Db|--0-----------------------0--------------0------|--------0--------------0-----------0--------------|
A |-----------------------------------2------------|--------0--------0--------2--------------0--------|
D |--------0-----------0-----------0-----------0---|--------4-----------4-----------4-----------4-----|
A |------------------------------------------------|--2-----2-----2-----------2-----------2-----------|
D |--0-----------0-----------0-----------0---------|--------------------------------------------------|

Gb|--------------------------2--------------------|
Db|--------------------------3--------------------|
A |--------------------------0--------------------|
D |--------2-----------2-----2--------------------|      
A |--------------------------0--------------------|
D |--2-----------2-----------2--------------------|


[Outro]

Gb|--2-----3--2------------------------------------|--0-----------------------------------------------|
Db|-----------------3--------0-----1--0------------|-----3-----0--------------0-----------------------|
A |-----------------------------------------0------|-----------------0--------------------2-----------|
D |--------2-----------2-----------0-----------0---|--------0-----------0-----------0-----------0-----|  x3
A |--0-----------0-----------2-----------2---------|--------------------------------------------------|
D |------------------------------------------------|--0-----------0-----------0-----------0-----------|

Gb|--2-----3--2------------------------------------|--0--------------------------------------------------|
Db|-----------------3--------0-----1--0------------|--0--------------------------------------------------|
A |-----------------------------------------0------|-----------------------------------------------------|
D |--------2-----------2-----------0-----------0---|--------0-----------0-----------0-----------0--------|
A |--0-----------0-----------2-----------2---------|-----------------------------------------------------|
D |------------------------------------------------|--0-----------0-----------0-----------0-----------0--|            
Submit corrections

↑ Back to top | Tablatures and chords for acoustic guitar and electric guitar, ukulele, drums are parodies/interpretations of the original songs. You may use it for private study, scholarship, research or language learning purposes only