Home » M » My Bloody Valentine »

My Bloody Valentine - To Here Knows When Tabs

Artists:  A B C D E F G H I J K L M N O P Q R S T U V W X Y Z # 

To Here Knows When Tabs

(ver. 3) Click to play this song!
My Bloody Valentine
intro: strum this a lot until the verse starts. He uses his left ring finger.
e|--0---------|
B|--8---------|
E|--0---------|
E|--0---------|
B|--0---------|
E|--0---------|

verse:
e|--0--0--0--0---|
B|--8--7--0--0---|
E|--0--0--0--0---|
E|--0--5--8--10--|
B|--0--7--8--10--|
E|--0--x--8--0---|


chorus:
e|--0------0---0---|
B|--8--10--0---0---|
E|--0--10--10--0---| These chords are based on a 2013 show I went to in Chicago.. It looked to 
E|--0--8---10--8---| me like he's gripping his fingers in the shape of power chords. I could
B|--0--0---8---8---| be wrong but that's what it looked like in all the live vids I've seen. 
E|--0--x---x---8---|



This part: Of all the live vids I've seen, Kevin plays this around the last 2 minutes of the song.
           He plays it like the chorus but with only these 2 chords.

e|--0----0--------|
B|--8----0--------|
E|--0----0--------|
E|--0----8--------|
B|--0----8--------|
E|--0----8--------|

            
Submit corrections

↑ Back to top | Tablatures and chords for acoustic guitar and electric guitar, ukulele, drums are parodies/interpretations of the original songs. You may use it for private study, scholarship, research or language learning purposes only