Home » M » Mxpx »

Mxpx - Unopposed Tabs

Artists:  A B C D E F G H I J K L M N O P Q R S T U V W X Y Z # 

Unopposed Tabs

(ver. 1) Click to play this song!
Mxpx
 Rating:
4/5 (4 votes)
                INTRO
e----------------------------    ----------------------------    
B----------------------------    ----------------------------   
G--------5555------------55--    --------5555------------55--    
D--3333--5555--666--555--55-- X2 --3333--5555--666--555--55-- X2 
A--3333--3333--666--555--33--    --3333--3333--666--555--33--    
E--1111--------444--333------    --1111--------444--333------    
PM...........................

e----------------------------
B----------------------------
G-------------------------5--
D--33333--6--5--33333--6--5--
A--33333--6--5--33333--6--3--
E--11111--4--3--11111--4-----

e-------------------------------  -------------------------------
B-------------------------------  -------------------------------
G---------------66--55--33--55--  -------------------------5-----
D--33333--6--5--66--55--33--55--  --33333--6--5--33333--6--5-----
A--33333--6--5--44--33--11--33--  --33333--6--5--33333--6--3-----
E--11111--4--3------------------  --11111--4--3--11111--4--------

e---------------------------
B---------------------------
G---------------6--5--3--5--
D--33333--6--5--6--5--3--5--
A--33333--6--5--4--3--1--3--
E--11111--4--3--------------

CHORUS
e---------------------------    
B---------------------------    
G---------------6666--5555--    
D--3333--6666---6666--5555-- X2 
A--3333--6666---4444--3333--    
E--1111--4444---------------    

AFTER CHORUS
e-----------------------------------------
B-----------------------------------------
G-------------66--5-555-------------------
D--33--6-666--66--5-555--33--6-666--6--6--
A--33--6-666--44--3-333--33--6-666--6--6--
E--11--4-444-------------11--4-444--4--4--

e------------------------  --------------------------------------------
B------------------------  --------------------------------------------
G-------------66--5-555--  --------------------------------------------
B--33--6-666--66--5-555--  --???????????????????????????????--8-8-888-- X2
A--33--6-666--44--3-333--  --???????????????????????????????--8-8-888--
E--11--4-444-------------  --???????????????????????????????--6-6-666--

                          Rest your hand on the strings and strum while
                          slideing you hand aross to fret 6, it wil make
                          the weird noise and then strum the rest. The 
                          weird noise is "?".

VERSE
e------------------------------    ------
B------------------------------    ------
G--6--5----------6--5----------    ------
D--6--5--333333--6--5--666666-- X2 --xx--
A--4--3--333333--4--3--666666--    --xx--
E--------111111--------444444--    --xx--

AFTER VERSE
e------------------------------------------------------    ------
B------------------------------------------------------    ------
G--6--5---------6--5--8-888--6--5---------6--5---------    ------
D--6--5--3-333--6--5--8-888--6--5--3-333--6--5--6-666-- X2 --33--
A--4--3--3-333--4--3--6-666--4--3--3-333--4--3--6-666--    --33--
E--------1-111---------------------1-111--------4-444--    --11--

e----------------------------------------------------
B----------------------------------------------------
G--55-55-55-55-55-55-55-5566-55-55-55-55-55-5566-55--
D--55-55-55-55-55-55-55-5566-55-55-55-55-55-5566-55--
A--33-33-33-33-33-33-33-3344-33-33-33-33-33-3344-33--
E----------------------------------------------------

e-----------------------------------
B-----------------------------------
G--------5---------------5----------
D--33--6-5-55-6-5--33--6-5-55-6--6-- X2
A--33--6-3-55-6-5--33--6-3-55-6--6--
E--11--4---33-4-3--11--4---33-4--4--

CHORUS
AFTER CHORUS
VERSE

ENDING
e---------------------------------------------------
B---------------------------------------------------
G--6--5---------6--5--8-888--6--5-------------------
D--6--5--3-333--6--5--8-888--6--5--3-333--6--5--3~--
A--4--3--3-333--4--3--6-666--4--3--3-333--6--5--3~--
E--------1-111---------------------1-111--4--3--1~--

Well thats it!, I love this song and it's not too hard to learn.
HAVE FUN!!
            
Submit corrections

↑ Back to top | Tablatures and chords for acoustic guitar and electric guitar, ukulele, drums are parodies/interpretations of the original songs. You may use it for private study, scholarship, research or language learning purposes only