» » »

Mxpx - Top Of The Charts Tabs

Artists:  A B C D E F G H I J K L M N O P Q R S T U V W X Y Z # 

Top Of The Charts Tabs

(ver. 1) Click to play this song!
Mxpx
 Rating:
4/5 (4 votes)

 Top Of The Charts lessons Tabs too difficult? Try these video lessons and learn fast
 
                (Intro)
-------------------------------------------------------------------------------
                                                     Top of the Charts - Mxpx
-------------------------------------------------------------------------------

Tuning: Standard

Really great song. But yeah this is my first tab so don't be crazy harsh.

e|---x-x-x-x--3---3---3---3---3---3---3---3---0---2---0---|
B|---x-x-x-x--3---3---3---3---3---3---3---3---0---3---1---|
G|---x-x-x-x--0---0---0---0---0---0---0---0---0---2---0---|
D|---x-x-x-x--2---0---2---0---2---0---2---0---2---0---2---|
A|---x-x-x-x--3---2---3---2---3---2---3---2---2-------3---|
E|---x-x-x-x------3-------3-------3-------3---0-----------|

I didn't tab out the entire rhythm but it is easy enough to figure it out by yourself

e|---3---0---0---3---0---0---3---0---0---2---0---|
B|---3---1---1---3---1---1---3---1---1---3---1---|
G|---0---2---0---0---2---0---0---2---0---2---2---|
D|---0---2---2---0---2---2---0---2---2---0---2---|
A|---2---0---3---2---0---3---2---0---3-------0---|
E|---3-----------3-----------3-------------------|

e|---0-------0--|
B|---1-------1--|
G|---2-------0--|
D|---2-------2--|
A|---0-------3--|
E|--------------|

e|--------------------------|
B|--------------------------|
G|-----------------------0--|
D|-----2--0--------0--2-----|
A|-----------2--3-----------|
E|--3-----------------------| x4


more to come...
            
Submit corrections


        Top Of The Charts lessons Hard to play? Try these video lessons and learn fast Top Of The Charts lessons
        
↑ Back to top | Tablatures and chords for acoustic guitar and electric guitar, ukulele, drums are parodies/interpretations of the original songs. You may use it for private study, scholarship, research or language learning purposes only