» » »

Mxpx - The Broken Bones Tabs

Artists:  A B C D E F G H I J K L M N O P Q R S T U V W X Y Z # 

The Broken Bones Tabs

(ver. 1) Click to play this song!
Mxpx
 Rating:
4/5 (4 votes)

 The Broken Bones lessons Tabs too difficult? Try these video lessons and learn fast
 
                Intro (lead guitar):
|--------------------------------------|
|--2-3-2-----2-3-2-----2-5-2-----2-5-2-|
|-2---------2---------2---------2------|
|--------------------------------------|
|--------------------------------------|
|--------------------------------------|

Intro (second guitar):
|-------------------------------------------|
|-------------------------------------------|
|---------------------444444444-77777-99999-|
|-777777777-444444444-444444444-77777-99999-|
|-777777777-444444444-222222222-55555-77777-|
|-555555555-222222222-----------------------|

Verse:
|-------------------------------------------|
|-------------------------------------------|
|---------------------444444444-77777-99999-|
|-777777777-444444444-444444444-77777-99999-|
|-777777777-444444444-222222222-55555-77777-|
|-555555555-222222222-----------------------|

Chorus:
|---------------------|
|---------------------|
|------7777-9999-7777-|
|-7777-7777-9999-7777-| x2
|-7777-5555-7777-5555-|
|-5555----------------|

INTRO
Verse
CHORUS

Solo:
|------------       ------------|
|--2-3-2-3-2-       --2-3-2-5-2-|
|-2---------- x3    -2----------|
|------------       ------------|
|------------       ------------|
|------------       ------------|

|------------------|
|--2-3-2-----2-3-2-|
|-2---------2------|
|------------------|
|------------------|
|------------------|

End on:
|---|      |---|
|---|      |---|
|-2-|  or  |-2-|
|---|      |-2-|
|---|      |-0-|
|---|      |---|
            
Submit corrections


        The Broken Bones lessons Hard to play? Try these video lessons and learn fast The Broken Bones lessons
        
↑ Back to top | Tablatures and chords for acoustic guitar and electric guitar, ukulele, drums are parodies/interpretations of the original songs. You may use it for private study, scholarship, research or language learning purposes only