» » »

Mxpx - Suggestion Box Bass & Tabs

Artists:  A B C D E F G H I J K L M N O P Q R S T U V W X Y Z # 

Suggestion Box Bass & Tabs

(ver. 1) Click to play this song!
Mxpx
 Rating:
4/5 (4 votes)

 Suggestion Box Bass & lessons Tabs too difficult? Try these video lessons and learn fast
 
                (Guitar)

Intro
B(2x)         F#(2x)       G(2x)        A(2x)

G|-----------------------------------------
D|-----------------------------------------
A|-----9-10-9-7-9---4-5-4-2-4---5-7-5-4-5-7
E|--77-------------------------------------

  B        F#        G       A

G|-----------------------------------------
D|-----------------------------------------
A|--2-4-5-7-5-4---5-4-5-0-5-4-5------------
E|--------------3--------------------------

    B     F#    (G-A-G-F#)

G|-----------------------------------------
D|-----------------------------------------
A|--2-4-5-7-5-4----------------------------
E|--------------3-5-3-5-3-5----------------


   B F# G A (4x)

G|-----------------------------------------
D|-----------------------------------------  (4X)
A|--2>-4>-5>-------------------------------
E|-----------5>----------------------------


   B  (D-C#-D)  (4x)

G|-----------------------------------------
D|-----------------------------------------  (4x)
A|--2>-5-4-5-------------------------------
E|-----------------------------------------


  F#-A-C#-A-G#-A   F#-A-C#-E  (4x)

G|-----------------------------------------
D|-----------------------------------------  (4x)
A|----0-4-0----------0-4-77----------------
E|--2-------4-4h5--2-----------------------


  B(1x)   F#(1x)   G(1x)  A(1x)

G|-----------------------------------------
D|-----------------------------------------
A|--2-4-5-7-5-4---5-4-5-0-5-4-5------------
E|--------------3--------------------------

  B F# G A (4x)

G|-----------------------------------------
D|-----------------------------------------  (4X)
A|--2>-4>-5>-------------------------------
E|-----------5>----------------------------


   B  (D-C#-D)  (4x)

G|-----------------------------------------
D|-----------------------------------------  (4x)
A|--2>-5-4-5-------------------------------
E|-----------------------------------------


  F#-A-C#-A-G#-A   F#-A-C#-E  (4x)

G|-----------------------------------------
D|-----------------------------------------  (4x)
A|----0-4-0----------0-4-77----------------
E|--2-------4-4h5--2-----------------------

(SOLO)
G 4679764767 7674679764767 7674 
D           7             7

G|-----------------------------------------
D|----------------------------------------- (play twice during solo)
A|--2-4-5-7-5-4---5-4-5-0-5-4-5------------
E|--------------3--------------------------

   B        F#        G       A

G|-----------------------------------------
D|----------------------------------------- 
A|--2-4-5-7-5-4---5-4-5-0-5-4-5------------
E|--------------3--------------------------

    B     F#    (G-A-G-F#-B) 

G|-----------------------------------------
D|-----------------------------------------
A|--2-4-5-7-5-4-------------2--------------
E|--------------3-5-3-5-3-5----------------
            
Submit corrections


        Suggestion Box Bass & lessons Hard to play? Try these video lessons and learn fast Suggestion Box Bass & lessons
        
↑ Back to top | Tablatures and chords for acoustic guitar and electric guitar, ukulele, drums are parodies/interpretations of the original songs. You may use it for private study, scholarship, research or language learning purposes only