» » »

Mxpx - Suggestion Box Tabs

Artists:  A B C D E F G H I J K L M N O P Q R S T U V W X Y Z # 

Suggestion Box Tabs

(ver. 1) Click to play this song!
Mxpx
 Rating:
4/5 (4 votes)

 Suggestion Box lessons Tabs too difficult? Try these video lessons and learn fast
 
                Suggestion Box by MxPx

True skatepunk song,fast paced with hammering drums,epic bass and a nice solo at the end.

(/) Slide Up  (\) Slide Down  (h) Hammer On  (p) Pull Off  (b) Bend (r) Release 
(v) Vibrato (l) Let ring

intro
E|-----------------------------------|
B|-----------------------------------|
G|-----------------------------------|
D|-4---------------------------------|
A|-2-4-5-7l--------------------------|
E|---2-3-5l--------------------------|

main riff
E|-----------------------------------|
B|-----------------------------------|
G|-----------------------------------|
D|-4444------------------------------|
A|-2222-4444-5555-7777---------------|
E|------2222-3333-5555---------------|

riff1
E|-----------------------------------|
B|-----------------------------------|
G|-----------------------------------|
D|-4444-7-6-7------------------------|
A|-2222-5-4-5------------------------|
E|-----------------------------------|

riff2
E|-----------------------------------|
B|-----------------------------------|
G|-----------------------------------|
D|------------------------2222-------|
A|-444-6-7-6-7--444-6-7-6-2222-------|
E|-222-4-5-4-5--222-4-5-4-0000-------|


riff3
E|-----------------------------------|
B|-----------------------------------|
G|-----------------------------------|
D|------------------------4444-------|
A|-444-6-7-6-7--444-6-7-6-2222-------|
E|-222-4-5-4-5--222-4-5-4------------|

solo - play twice,then end
E|--------------------------------------------------------|
B|--------------------------------------------------------|
G|-44-66-77-99-77-66----77-66h7p6----77-66h7p6-|-------4l-|
D|-------------------55-----------77-----------|----------|
A|---------------------------------------------|----------|
E|---------------------------------------------|end on----|

end song on
E|-------------------------------------|
B|-------------------------------------|
G|-------------------------------------|
D|-4-----------------------------------|
A|-2-----------------------------------|
E|-------------------------------------|

Have fun!
            
Submit corrections


        Suggestion Box lessons Hard to play? Try these video lessons and learn fast Suggestion Box lessons
        
↑ Back to top | Tablatures and chords for acoustic guitar and electric guitar, ukulele, drums are parodies/interpretations of the original songs. You may use it for private study, scholarship, research or language learning purposes only