» » »

Mxpx - I Want You Here With Me Tabs

Artists:  A B C D E F G H I J K L M N O P Q R S T U V W X Y Z # 

I Want You Here With Me Tabs

(ver. 1) Click to play this song!
Mxpx
 Rating:
4/5 (4 votes)

 I Want You Here With Me lessons Tabs too difficult? Try these video lessons and learn fast
 
                this is my first tab, so if you dont give me a bunch of *** about it

intro
e|------------------------------------------------------------------------|
B|------------------------------------------------------------------------|
G|------------------------------------------------------------------------|
D|-4~---------------------------------------------------------------------|
A|-4~--1-2-4------1-4-2-1-----1----------1-4-2-1--------------------------|
E|-2~--------2-4----------2-4---1-2--2-4---------2------------------------|

Verse
e|------------------------------------------------------------------------|
B|------------------------------------------------------------------------|
G|-11-11-11-11-11-11-8-8-8-8-8-8--4-4-6-6---------------------------------|
D|-11-11-11-11-11-11-8-8-8-8-8-8--4-4-6-6-4-4-4-4-4-----------------------|
A|-9--9--9--9--9--9--6-6-6-6-6-6--2-2-4-4-4-4-4-4-4-----------------------|
E|----------------------------------------2-2-2-2-2-----------------------|

Chorus
e|------------------------------------------------------------------------|
B|------------------------------------------------------------------------|
G|-4-4-6-6-----------------4-4-6-6-8-8-8-8-88-10-11-4-4-6-6---------------|
D|-4-4-6-6--44-444-444-444-4-4-6-6-8-8-8-8-88-10-11-4-4-6-6-4-------------|
A|-2-2-4-4--44-444-444-444-2-2-4-4-6-6-6-6-66-8--9--2-2-4-4-4-------------|
E|----------22-222-222-222----------------------------------2-------------|

Solo
e|------------------------------------------------------------------------|
B|------------------------------------------------------------------------|
G|-------4---4-3-----------------4---4-3----------------------------------|
D|---------4-----4-3-4-3-----------4-----4-3-4--4-6-6-6-6-8-8-8-8---------|
A|-1-2-4-----------------4-2-1--------------------------------------------|
E|-----------------------------2------------------------------------------|

e|------------------------------------------------------------------------|
B|--7-7-7-7-7-7-6-6-6-6-6-6-9-9-9-9-9-6-7-7-7-7-7-7-6-6-6-6-6-6-7---------|
G|--6-6-6-6-6-6-6-6-6-6-6-6-6-6-6-6-6-6-6-6-6-6-6-6-6-6-6-6-6-6-6---------|
D|------------------------------------------------------------------------|
A|------------------------------------------------------------------------|
E|------------------------------------------------------------------------|

Ending
e|------------------------------------------------------------------------|
B|------------------------------------------------------------------------|
G|-4~--6~------4~--6~--8~--10~--11~--4~--6~-------------------------------|
D|-4~--6~--4~--4~--6~--8~--10~--11~--4~--6~---4~--------------------------|
A|-2~--4~--4~--2~--4~--6~--8-~--9~---2~--4~---4~--------------------------|
E|---------2~---------------------------------2~--------------------------|



Song Order
intro  1x
Verse  2x
chorus 1x
verse  2x
chorus 1x
solo   1x
chorus 1x
ending 1x
            
Submit corrections


        I Want You Here With Me lessons Hard to play? Try these video lessons and learn fast I Want You Here With Me lessons
        
↑ Back to top | Tablatures and chords for acoustic guitar and electric guitar, ukulele, drums are parodies/interpretations of the original songs. You may use it for private study, scholarship, research or language learning purposes only