» » »

Mxpx - Inches From Life Tabs

Artists:  A B C D E F G H I J K L M N O P Q R S T U V W X Y Z # 

Inches From Life Tabs

(ver. 1) Click to play this song!
Mxpx
 Rating:
4/5 (4 votes)

 Inches From Life lessons Tabs too difficult? Try these video lessons and learn fast
 
                MxPx - Inches From Life
Autor: CosmoHack Devil Iowa

Tuning: EADGBE


This tab is 100% correct because I say it! xD!


P.M. - Palm Muted
~ - Let Ring 


Intro:


E ------------------------------------------------------------------
B ------------------------------------------------------------------
G --------------------5-5-5-5-5-5-5-5---6-6-6-6-6-6-6-6---3---------
D --3-3-3-3-3-3-3-3---5-5-5-5-5-5-5-5---6-6-6-6-6-6-6-6---3---6--5--
A --3-3-3-3-3-3-3-3---3-3-3-3-3-3-3-3---4-4-4-4-4-4-4-4---1---6--5--
E --1-1-1-1-1-1-1-1-------------------------------------------4--3--
    - - - - - - - -   - - - - - - - -   - - - - - - - -   -          P.M.



Verse:


E ------------------------------------------------------------------
B ------------------------------------------------------------------
G ----------------5-5-5-5-5-5---6-6-6-6-6-6---3-3-3-3-3-3-----------
D --3-3-3-3-3-3---3-3-3-3-3-3---6-6-6-6-6-6---3-3-3-3-3-3-----------
A --3-3-3-3-3-3---3-3-3-3-3-3---4-4-4-4-4-4---1-1-1-1-1-1-----------
E --1-1-1-1-1-1-----------------------------------------------------


E ------------------------------------------------------------------
B ------------------------------------------------------------------
G ----------------5-5-5-5-5-5---6-6-6-6-6-6---3-3-3-3-3-3-----------
D --3-3-3-3-3-3---3-3-3-3-3-3---6-6-6-6-6-6---3-3-3-3-3-3-----------
A --3-3-3-3-3-3---3-3-3-3-3-3---4-4-4-4-4-4---1-1-1-1-1-1-----------
E --1-1-1-1-1-1-----------------------------------------------------




Chorus: (Listen To The Song To Figure Out The Different Rhythms)


E --------------------------
B --------4-4---------4-4---
G --------5-5---------6-6---
D --6-6---5-5---3-3---6-6---
A --6-6---3-3---3-3---4-4---
E --4-4---------1-1---------



End Of Chorus:


E -----------------------------------------------------------------------
B -----------------------------------------------------------------------
G ----------------------------------6-6--5-5--------------6-6--5-5-------
D --3--3--3--3--3--3--3---6--3-3----6-6--5-5--6-6--3-3----6-6--5-5--6-6--
A --3--3--3--3--3--3--3---6--3-3----4-4--3-3--6-6--3-3----4-4--3-3--6-6--
E --1--1--1--1--1--1--1---4--1-1--------------4-4--1-1--------------4-4--
    -  -  -  -  -  -  -                                                   P.M. 


Verse:


E ------------------------------------------------------------------
B ------------------------------------------------------------------
G ----------------5-5-5-5-5-5---6-6-6-6-6-6---3-3-3-3-3-3-----------
D --3-3-3-3-3-3---3-3-3-3-3-3---6-6-6-6-6-6---3-3-3-3-3-3-----------
A --3-3-3-3-3-3---3-3-3-3-3-3---4-4-4-4-4-4---1-1-1-1-1-1-----------
E --1-1-1-1-1-1-----------------------------------------------------


E ------------------------------------------------------------------
B ------------------------------------------------------------------
G ----------------5-5-5-5-5-5---6-6-6-6-6-6---3-3-3-3-3-3-----------
D --3-3-3-3-3-3---3-3-3-3-3-3---6-6-6-6-6-6---3-3-3-3-3-3-----------
A --3-3-3-3-3-3---3-3-3-3-3-3---4-4-4-4-4-4---1-1-1-1-1-1-----------
E --1-1-1-1-1-1-----------------------------------------------------




Chorus: (Listen To The Song To Figure Out The Different Rhythms)


E --------------------------
B --------4-4---------4-4---
G --------5-5---------6-6---
D --6-6---5-5---3-3---6-6---
A --6-6---3-3---3-3---4-4---
E --4-4---------1-1---------



End:


E -----------------------------------------------------------------------------
B -----------------------------------------------------------------------------
G -----------------------------------------------------------------------------
D --3-3-3-3-3-3-3-3-3-3-3-3---4--5--3~----4--5--3-3---3--3--3--3--3---4--5--3--
A --3-3-3-3-3-3-3-3-3-3-3-3---4--5--3~----4--5--3-3---3--3--3--3--3---4--5--3--
E --1-1-1-1-1-1-1-1-1-1-1-1---6--3--1~----6--3--1-1---1--0--1--0--1---6--3--1--
    - - - - - - - - - - - -                           -  -  -  -  -             P.M.




Lyrics:


There's something wrong inside of us
It's important to discuss
A narrow mind a hardened heart
And this is just the very start

Frustration gets the best of me
So I don't speak coherently
We are taught to go along
We need to figure out what might be wrong

You oughta know you can be inches from life
And never live at all
You oughta know that pride is our downfall
There's no need to stand up tall

You oughta know you can be inches from life
And never live at all
You oughta know that pride is our downfall
There's no need to stand up tall

No one knows what's going on
Even those who taught oppression
Most of which don't realize
Uneasy smiles and blackened eyes

Could it be there's something real
Not always known but you can feel
The presence of an absolute
That our lives can't substitute 

You oughta know you can be inches from life
And never live at all
You oughta know that pride is our downfall
There's no need to stand up tall

You oughta know you can be inches from life
And never live at all
You oughta know that pride is our downfall
There's no need to stand up tall



-------------------------------------------------------------



And that´s all!


And...sorry about my english...I´m spanish!


CosmoHack Devil Iowa
            
Submit corrections


        Inches From Life lessons Hard to play? Try these video lessons and learn fast Inches From Life lessons
        
↑ Back to top | Tablatures and chords for acoustic guitar and electric guitar, ukulele, drums are parodies/interpretations of the original songs. You may use it for private study, scholarship, research or language learning purposes only