» » »

Mxpx - Grey Skies Turn Blue Bass

Artists:  A B C D E F G H I J K L M N O P Q R S T U V W X Y Z # 

Grey Skies Turn Blue Bass

(ver. 1) Click to play this song!
Mxpx
 Rating:
4/5 (4 votes)

 Grey Skies Turn Blue lessons Tabs too difficult? Try these video lessons and learn fast
 
                

This Is My First Tab And I Think Its Alright
I Hope You Guys Like It Its A Very Easy Song
To PLay.


Intro 00:05
G---------------------------------| 
D---------------------------------| 
A--2-x14--4-6-----------4-6-------| 
E----------------4-x14------------|

G---------------------------------| 
D---------------------------------| 
A--2-x14--4-6---------------------| 
E----------------4-x9--4~---------|


Verse
G-------------------------------------------------------------| 
D-------------------------------------------------------------| x2
A-22222222222222----------------------------------------------| 
E----------------44444444444444-22222222222222-00000000000000-|


Chorus
G---------------------------------------------------------| 
D---------------------------------------------------------| x2
A-222222--------------------------------------------------| 
E--------444444-222222-000000-444444-222222-000000000000--| 

Intro
G---------------------------------| 
D---------------------------------| 
A--2-x14--4-6---------------------| 
E----------------4-x9--4~---------|


Verse
G-------------------------------------------------------------| 
D-------------------------------------------------------------| x2
A-22222222222222----------------------------------------------| 
E----------------44444444444444-22222222222222-00000000000000-|


Chorus
G---------------------------------------------------------| 
D---------------------------------------------------------| x2
A-222222--------------------------------------------------| 
E--------444444-222222-000000-444444-222222-000000000000--| 


Bridge
G-------------------------------------------------------------| 
D-------------------------------------------------------------|
A-4~-2~-2-4-2-0-2-0--------------2-4-2-0-2-0------------------|
E--------------------4-2-0-4-2-0--------------4-2-0-4-2-0-----|



Intro
G---------------------------------| 
D---------------------------------| 
A--2-x14--4-6----------4-6--------| 
E----------------4-x14------------|

G---------------------------------| 
D---------------------------------| 
A--2-x14--4-6---------------------| 
E----------------4-x9--4~---------|


Chorus
G---------------------------------------------------------| 
D---------------------------------------------------------| x2
A-222222--------------------------------------------------| 
E--------444444-222222-000000-444444-222222-000000000000--| 

G---------------------------------------| 
D---------------------------------------|
A---------------------------------------| 
E-----------444444-222222-000000000000--|


 Intro
G---------------------------------| 
D---------------------------------| 
A--2-x14--4-6----------4-6--------| 
E----------------4-x14------------|

G---------------------------------| 
D---------------------------------| 
A--2-x14--4-6---------------------| 
E----------------4-x9--4~---------|


Please Rate This Tab
            
Submit corrections


        Grey Skies Turn Blue lessons Hard to play? Try these video lessons and learn fast Grey Skies Turn Blue lessons
        
↑ Back to top | Tablatures and chords for acoustic guitar and electric guitar, ukulele, drums are parodies/interpretations of the original songs. You may use it for private study, scholarship, research or language learning purposes only