» » »

Mxpx - Emotional Anarchist Tabs

Artists:  A B C D E F G H I J K L M N O P Q R S T U V W X Y Z # 

Emotional Anarchist Tabs

(ver. 1) Click to play this song!
Mxpx
 Rating:
4/5 (4 votes)

 Emotional Anarchist lessons Tabs too difficult? Try these video lessons and learn fast
 
                Album:Panic

Intro/Verse
e|---------------------------------------------------------|
B|---------------------------------------------------------|
G|----------3333-555------------------3333-555-------------|
D|--3~---33-3333-555-33333333333---33-3333-555-33333333333-|
A|--3~---33-1111-333-33333333333---33-1111-333-33333333333-| 
E|--1~---11----------11111111111---11----------11111111111-|
    ^Ring             ^    PM  ^                ^    PM  ^
Verse 2
e|----------------------55---------------------------------|
B|----------------------66---------------------------------|
G|--33-555-33----33-555-77-33333333333---------------------|
D|--33-555-33-33-33-555-77-33333333333---------------------|
A|--11-333-11-33-11-333-55-11111111111---------------------| 
E|------------11-------------------------------------------|  
                            ^   PM   ^
Chorus
e|------------------55--------------|----------------------|
B|------------------66--------------|----------------------|
G|----------33-5555-77-5555-33-5555-|----------3333~-10-10-|
D|--33-5555-33-5555-77-5555-33-5555-|--33-5555-3333~-10-10-|
A|--33-5555-11-3333-55-3333-11-3333-|--33-5555-1111~--8--8-| 
E|--11-3333-------------------------|--11-3333-------------|  
    ^      3x     ^                    ^     2x   ^
Verse
e|----------------------------------------------------|
B|----------------------------------------------------|
G|-----3333-555------------------3333-555-------------|
D|--33-3333-555-33333333333---33-3333-555-33333333333-|
A|--33-1111-333-33333333333---33-1111-333-33333333333-| 
E|--11----------11111111111---11----------11111111111-|
    ^Ring        ^    PM  ^                ^    PM  ^
Verse 2
e|----------------------55---------------------------------|
B|----------------------66---------------------------------|
G|--33-555-33----33-555-77-33333333333---------------------|
D|--33-555-33-33-33-555-77-33333333333---------------------|
A|--11-333-11-33-11-333-55-11111111111---------------------| 
E|------------11-------------------------------------------|  
                            ^   PM   ^
Chorus
e|------------------55--------------|
B|------------------66--------------|
G|----------33-5555-77-5555-33-5555-|
D|--33-5555-33-5555-77-5555-33-5555-|
A|--33-5555-11-3333-55-3333-11-3333-|
E|--11-3333-------------------------|
    ^      3x     ^       
Bridge             
e|------------------------5-------------------|
B|------------------------6-------------------|
G|--------------333333333-7-5-2-333333333-----|
D|--33333-55555-333333333-7-5-2-333333333-----|
A|--33333-55555-111111111-5-3-0-111111111-----| 
E|--11111-33333-------------------------------|  

Chorus till end  
            
Submit corrections


        Emotional Anarchist lessons Hard to play? Try these video lessons and learn fast Emotional Anarchist lessons
        
↑ Back to top | Tablatures and chords for acoustic guitar and electric guitar, ukulele, drums are parodies/interpretations of the original songs. You may use it for private study, scholarship, research or language learning purposes only